  0
SECTION
  2
HEADER
  9
$ACADVER
  1
AC1015
  9
$ACADMAINTVER
 70
     6
  9
$DWGCODEPAGE
  3
ANSI_1252
  9
$INSBASE
 10
0.0
 20
0.0
 30
0.0
  9
$EXTMIN
 10
0.0
 20
0.0
 30
0.0
  9
$EXTMAX
 10
3000.0
 20
4500.0
 30
0.0
  9
$LIMMIN
 10
0.0
 20
0.0
  9
$LIMMAX
 10
3000.0
 20
4500.0
  9
$ORTHOMODE
 70
     0
  9
$REGENMODE
 70
     1
  9
$FILLMODE
 70
     1
  9
$QTEXTMODE
 70
     0
  9
$MIRRTEXT
 70
     1
  9
$LTSCALE
 40
1.0
  9
$ATTMODE
 70
     1
  9
$TEXTSIZE
 40
2.5
  9
$TRACEWID
 40
1.0
  9
$TEXTSTYLE
  7
Standard
  9
$CLAYER
  8
0
  9
$CELTYPE
  6
ByLayer
  9
$CECOLOR
 62
   256
  9
$CELTSCALE
 40
1.0
  9
$DISPSILH
 70
     0
  9
$DIMSCALE
 40
1.0
  9
$DIMASZ
 40
2.5
  9
$DIMEXO
 40
0.625
  9
$DIMDLI
 40
3.75
  9
$DIMRND
 40
0.0
  9
$DIMDLE
 40
0.0
  9
$DIMEXE
 40
1.25
  9
$DIMTP
 40
0.0
  9
$DIMTM
 40
0.0
  9
$DIMTXT
 40
2.5
  9
$DIMCEN
 40
2.5
  9
$DIMTSZ
 40
0.0
  9
$DIMTOL
 70
     0
  9
$DIMLIM
 70
     0
  9
$DIMTIH
 70
     0
  9
$DIMTOH
 70
     0
  9
$DIMSE1
 70
     0
  9
$DIMSE2
 70
     0
  9
$DIMTAD
 70
     1
  9
$DIMZIN
 70
     8
  9
$DIMBLK
  1

  9
$DIMASO
 70
     1
  9
$DIMSHO
 70
     1
  9
$DIMPOST
  1

  9
$DIMAPOST
  1

  9
$DIMALT
 70
     0
  9
$DIMALTD
 70
     3
  9
$DIMALTF
 40
0.0393700787
  9
$DIMLFAC
 40
1.0
  9
$DIMTOFL
 70
     1
  9
$DIMTVP
 40
0.0
  9
$DIMTIX
 70
     0
  9
$DIMSOXD
 70
     0
  9
$DIMSAH
 70
     0
  9
$DIMBLK1
  1

  9
$DIMBLK2
  1

  9
$DIMSTYLE
  2
ISO-25
  9
$DIMCLRD
 70
     0
  9
$DIMCLRE
 70
     0
  9
$DIMCLRT
 70
     0
  9
$DIMTFAC
 40
1.0
  9
$DIMGAP
 40
0.625
  9
$DIMJUST
 70
     0
  9
$DIMSD1
 70
     0
  9
$DIMSD2
 70
     0
  9
$DIMTOLJ
 70
     0
  9
$DIMTZIN
 70
     8
  9
$DIMALTZ
 70
     0
  9
$DIMALTTZ
 70
     0
  9
$DIMUPT
 70
     0
  9
$DIMDEC
 70
     2
  9
$DIMTDEC
 70
     2
  9
$DIMALTU
 70
     2
  9
$DIMALTTD
 70
     3
  9
$DIMTXSTY
  7
Standard
  9
$DIMAUNIT
 70
     0
  9
$DIMADEC
 70
     0
  9
$DIMALTRND
 40
0.0
  9
$DIMAZIN
 70
     0
  9
$DIMDSEP
 70
    44
  9
$DIMATFIT
 70
     3
  9
$DIMFRAC
 70
     0
  9
$DIMLDRBLK
  1

  9
$DIMLUNIT
 70
     2
  9
$DIMLWD
 70
    -2
  9
$DIMLWE
 70
    -2
  9
$DIMTMOVE
 70
     0
  9
$LUNITS
 70
     2
  9
$LUPREC
 70
     4
  9
$SKETCHINC
 40
1.0
  9
$FILLETRAD
 40
10.0
  9
$AUNITS
 70
     0
  9
$AUPREC
 70
     0
  9
$MENU
  1
.
  9
$ELEVATION
 40
0.0
  9
$PELEVATION
 40
0.0
  9
$THICKNESS
 40
0.0
  9
$LIMCHECK
 70
     0
  9
$CHAMFERA
 40
10.0
  9
$CHAMFERB
 40
10.0
  9
$CHAMFERC
 40
20.0
  9
$CHAMFERD
 40
0.0
  9
$SKPOLY
 70
     0
  9
$TDCREATE
 40
2456744.394582442
  9
$TDUCREATE
 40
2456744.352915775
  9
$TDUPDATE
 40
2456744.394582454
  9
$TDUUPDATE
 40
2456744.352915787
  9
$TDINDWG
 40
0.0000000116
  9
$TDUSRTIMER
 40
0.0000000116
  9
$USRTIMER
 70
     1
  9
$ANGBASE
 50
0.0
  9
$ANGDIR
 70
     0
  9
$PDMODE
 70
     0
  9
$PDSIZE
 40
0.0
  9
$PLINEWID
 40
0.0
  9
$SPLFRAME
 70
     0
  9
$SPLINETYPE
 70
     6
  9
$SPLINESEGS
 70
     8
  9
$HANDSEED
  5
1EB
  9
$SURFTAB1
 70
     6
  9
$SURFTAB2
 70
     6
  9
$SURFTYPE
 70
     6
  9
$SURFU
 70
     6
  9
$SURFV
 70
     6
  9
$UCSBASE
  2

  9
$UCSNAME
  2

  9
$UCSORG
 10
0.0
 20
0.0
 30
0.0
  9
$UCSXDIR
 10
1.0
 20
0.0
 30
0.0
  9
$UCSYDIR
 10
0.0
 20
1.0
 30
0.0
  9
$UCSORTHOREF
  2

  9
$UCSORTHOVIEW
 70
     0
  9
$UCSORGTOP
 10
0.0
 20
0.0
 30
0.0
  9
$UCSORGBOTTOM
 10
0.0
 20
0.0
 30
0.0
  9
$UCSORGLEFT
 10
0.0
 20
0.0
 30
0.0
  9
$UCSORGRIGHT
 10
0.0
 20
0.0
 30
0.0
  9
$UCSORGFRONT
 10
0.0
 20
0.0
 30
0.0
  9
$UCSORGBACK
 10
0.0
 20
0.0
 30
0.0
  9
$PUCSBASE
  2

  9
$PUCSNAME
  2

  9
$PUCSORG
 10
0.0
 20
0.0
 30
0.0
  9
$PUCSXDIR
 10
1.0
 20
0.0
 30
0.0
  9
$PUCSYDIR
 10
0.0
 20
1.0
 30
0.0
  9
$PUCSORTHOREF
  2

  9
$PUCSORTHOVIEW
 70
     0
  9
$PUCSORGTOP
 10
0.0
 20
0.0
 30
0.0
  9
$PUCSORGBOTTOM
 10
0.0
 20
0.0
 30
0.0
  9
$PUCSORGLEFT
 10
0.0
 20
0.0
 30
0.0
  9
$PUCSORGRIGHT
 10
0.0
 20
0.0
 30
0.0
  9
$PUCSORGFRONT
 10
0.0
 20
0.0
 30
0.0
  9
$PUCSORGBACK
 10
0.0
 20
0.0
 30
0.0
  9
$USERI1
 70
     0
  9
$USERI2
 70
     0
  9
$USERI3
 70
     0
  9
$USERI4
 70
     0
  9
$USERI5
 70
     0
  9
$USERR1
 40
0.0
  9
$USERR2
 40
0.0
  9
$USERR3
 40
0.0
  9
$USERR4
 40
0.0
  9
$USERR5
 40
0.0
  9
$WORLDVIEW
 70
     1
  9
$SHADEDGE
 70
     3
  9
$SHADEDIF
 70
    70
  9
$TILEMODE
 70
     1
  9
$MAXACTVP
 70
    64
  9
$PINSBASE
 10
0.0
 20
0.0
 30
0.0
  9
$PLIMCHECK
 70
     0
  9
$PEXTMIN
 10
0.0
 20
0.0
 30
0.0
  9
$PEXTMAX
 10
3000.0
 20
4500.0
 30
0.0
  9
$PLIMMIN
 10
0.0
 20
0.0
  9
$PLIMMAX
 10
3000.0
 20
4500.0
  9
$UNITMODE
 70
     0
  9
$VISRETAIN
 70
     1
  9
$PLINEGEN
 70
     0
  9
$PSLTSCALE
 70
     1
  9
$TREEDEPTH
 70
  3020
  9
$CMLSTYLE
  2
Standard
  9
$CMLJUST
 70
     0
  9
$CMLSCALE
 40
20.0
  9
$PROXYGRAPHICS
 70
     1
  9
$MEASUREMENT
 70
     1
  9
$CELWEIGHT
370
    -1
  9
$ENDCAPS
280
     0
  9
$JOINSTYLE
280
     0
  9
$LWDISPLAY
290
     0
  9
$INSUNITS
 70
     4
  9
$HYPERLINKBASE
  1

  9
$STYLESHEET
  1

  9
$XEDIT
290
     1
  9
$CEPSNTYPE
380
     0
  9
$PSTYLEMODE
290
     1
  9
$FINGERPRINTGUID
  2
{F41C51D6-D695-4FB7-8954-2E42D2C7FBF4}
  9
$VERSIONGUID
  2
{FAEB1C32-E019-11D5-929B-00C0DF256EC4}
  9
$EXTNAMES
290
     1
  9
$PSVPSCALE
 40
0.0
  9
$OLESTARTUP
290
     0
  0
ENDSEC
  0
SECTION
  2
CLASSES
  0
CLASS
  1
ACDBDICTIONARYWDFLT
  2
AcDbDictionaryWithDefault
  3
ObjectDBX Classes
 90
        0
280
     0
281
     0
  0
CLASS
  1
VISUALSTYLE
  2
AcDbVisualStyle
  3
ObjectDBX Classes
 90
     4095
280
     0
281
     0
  0
CLASS
  1
SCALE
  2
AcDbScale
  3
ObjectDBX Classes
 90
     1153
280
     0
281
     0
  0
CLASS
  1
DICTIONARYVAR
  2
AcDbDictionaryVar
  3
ObjectDBX Classes
 90
        0
280
     0
281
     0
  0
CLASS
  1
ACDBPLACEHOLDER
  2
AcDbPlaceHolder
  3
ObjectDBX Classes
 90
        0
280
     0
281
     0
  0
CLASS
  1
LAYOUT
  2
AcDbLayout
  3
ObjectDBX Classes
 90
        0
280
     0
281
     0
  0
ENDSEC
  0
SECTION
  2
TABLES
  0
TABLE
  2
VPORT
  5
8
330
0
100
AcDbSymbolTable
 70
     1
  0
VPORT
  5
29
330
8
100
AcDbSymbolTableRecord
100
AcDbViewportTableRecord
  2
*Active
 70
     0
 10
0.0
 20
0.0
 11
1.0
 21
1.0
 12
344.1869158879
 22
148.5
 13
0.0
 23
0.0
 14
10.0
 24
10.0
 15
10.0
 25
10.0
 16
0.0
 26
0.0
 36
1.0
 17
0.0
 27
0.0
 37
0.0
 40
297.0
 41
1.9729729729
 42
50.0
 43
0.0
 44
0.0
 50
0.0
 51
0.0
 71
     0
 72
   100
 73
     1
 74
     3
 75
     0
 76
     0
 77
     0
 78
     0
281
     0
 65
     1
110
0.0
120
0.0
130
0.0
111
1.0
121
0.0
131
0.0
112
0.0
122
1.0
132
0.0
 79
     0
146
0.0
  0
ENDTAB
  0
TABLE
  2
LTYPE
  5
5
330
0
100
AcDbSymbolTable
 70
     2
  0
LTYPE
  5
14
330
5
100
AcDbSymbolTableRecord
100
AcDbLinetypeTableRecord
  2
ByBlock
 70
     0
  3

 72
    65
 73
     0
 40
0.0
  0
LTYPE
  5
15
330
5
100
AcDbSymbolTableRecord
100
AcDbLinetypeTableRecord
  2
ByLayer
 70
     0
  3

 72
    65
 73
     0
 40
0.0
  0
LTYPE
  5
16
330
5
100
AcDbSymbolTableRecord
100
AcDbLinetypeTableRecord
  2
Continuous
 70
     0
  3
Solid line
 72
    65
 73
     0
 40
0.0
  0
LTYPE
  5
167
330
5
100
AcDbSymbolTableRecord
100
AcDbLinetypeTableRecord
  2
CENTER2
 70
     0
  3
Center (.5x) ___ _ ___ _ ___ _ ___ _ ___ _ ___
 72
    65
 73
     4
 40
28.575
 49
19.05
 74
     4
 75
     0
340
0
 46
0.0
 50
0.0
 44
0.0
 45
0.0
 49
-3.175
 74
     4
 75
     0
340
0
 46
0.0
 50
0.0
 44
0.0
 45
0.0
 49
3.175
 74
     4
 75
     0
340
0
 46
0.0
 50
0.0
 44
0.0
 45
0.0
 49
-3.175
 74
     4
 75
     0
340
0
 46
0.0
 50
0.0
 44
0.0
 45
0.0
  0
ENDTAB
  0
TABLE
  2
LAYER
  5
2
330
0
100
AcDbSymbolTable
 70
    13
  0
LAYER
  5
10
330
2
100
AcDbSymbolTableRecord
100
AcDbLayerTableRecord
  2
0
 70
     0
 62
     7
  6
Continuous
370
    -3
390
F
  0
LAYER
  5
5D
330
2
100
AcDbSymbolTableRecord
100
AcDbLayerTableRecord
  2
Default
 70
     0
 62
     7
  6
Continuous
370
    -3
390
F
  0
LAYER
  5
60
330
2
100
AcDbSymbolTableRecord
100
AcDbLayerTableRecord
  2
$DDT_AUDIT_GENERATED_(60)
 70
     0
 62
     7
  6
Continuous
370
    -3
390
F
  0
LAYER
  5
77
330
2
100
AcDbSymbolTableRecord
100
AcDbLayerTableRecord
  2
$DDT_AUDIT_GENERATED_(77)
 70
     0
 62
     7
  6
Continuous
370
    -3
390
F
  0
LAYER
  5
7C
330
2
100
AcDbSymbolTableRecord
100
AcDbLayerTableRecord
  2
$DDT_AUDIT_GENERATED_(7C)
 70
     0
 62
     7
  6
Continuous
370
    -3
390
F
  0
LAYER
  5
8B
330
2
100
AcDbSymbolTableRecord
100
AcDbLayerTableRecord
  2
$DDT_AUDIT_GENERATED_(8B)
 70
     0
 62
     7
  6
Continuous
370
    -3
390
F
  0
LAYER
  5
14C
330
2
100
AcDbSymbolTableRecord
100
AcDbLayerTableRecord
  2
$DDT_AUDIT_GENERATED_(14C)
 70
     0
 62
     7
  6
Continuous
370
    -3
390
F
  0
LAYER
  5
161
330
2
100
AcDbSymbolTableRecord
100
AcDbLayerTableRecord
  2
$DDT_AUDIT_GENERATED_(161)
 70
     0
 62
     7
  6
Continuous
370
    -3
390
F
  0
LAYER
  5
166
330
2
100
AcDbSymbolTableRecord
100
AcDbLayerTableRecord
  2
DV1_Default
 70
     0
 62
     7
  6
Continuous
370
    -3
390
F
  0
LAYER
  5
1A9
330
2
100
AcDbSymbolTableRecord
100
AcDbLayerTableRecord
  2
$DDT_AUDIT_GENERATED_(1A9)
 70
     0
 62
     7
  6
Continuous
370
    -3
390
F
  0
LAYER
  5
1AC
330
2
100
AcDbSymbolTableRecord
100
AcDbLayerTableRecord
  2
$DDT_AUDIT_GENERATED_(1AC)
 70
     0
 62
     7
  6
Continuous
370
    -3
390
F
  0
LAYER
  5
1B0
330
2
100
AcDbSymbolTableRecord
100
AcDbLayerTableRecord
  2
DV2_Default
 70
     0
 62
     7
  6
Continuous
370
    -3
390
F
  0
LAYER
  5
1D1
330
2
100
AcDbSymbolTableRecord
100
AcDbLayerTableRecord
  2
DV3_Default
 70
     0
 62
     7
  6
Continuous
370
    -3
390
F
  0
ENDTAB
  0
TABLE
  2
STYLE
  5
3
330
0
100
AcDbSymbolTable
 70
     2
  0
STYLE
  5
11
330
3
100
AcDbSymbolTableRecord
100
AcDbTextStyleTableRecord
  2
Standard
 70
     0
 40
0.0
 41
1.0
 50
0.0
 71
     0
 42
2.5
  3
txt
  4

  0
STYLE
  5
1DA
330
3
100
AcDbSymbolTableRecord
100
AcDbTextStyleTableRecord
  2
SEACAD_seiso_ttf
 70
     0
 40
0.0
 41
1.0
 50
0.0
 71
     0
 42
0.2
  3
seiso.ttf
  4

  0
ENDTAB
  0
TABLE
  2
VIEW
  5
6
330
0
100
AcDbSymbolTable
 70
     0
  0
ENDTAB
  0
TABLE
  2
UCS
  5
7
330
0
100
AcDbSymbolTable
 70
     0
  0
ENDTAB
  0
TABLE
  2
APPID
  5
9
330
0
100
AcDbSymbolTable
 70
     1
  0
APPID
  5
12
330
9
100
AcDbSymbolTableRecord
100
AcDbRegAppTableRecord
  2
ACAD
 70
     0
  0
ENDTAB
  0
TABLE
  2
DIMSTYLE
  5
A
330
0
100
AcDbSymbolTable
 70
     1
100
AcDbDimStyleTable
  0
DIMSTYLE
105
27
330
A
100
AcDbSymbolTableRecord
100
AcDbDimStyleTableRecord
  2
ISO-25
 70
     0
 41
2.5
 42
0.625
 43
3.75
 44
1.25
 73
     0
 74
     0
 77
     1
 78
     8
140
2.5
141
2.5
143
0.0393700787
147
0.625
171
     3
172
     1
271
     2
272
     2
274
     3
278
    44
283
     0
284
     8
340
11
  0
ENDTAB
  0
TABLE
  2
BLOCK_RECORD
  5
1
330
0
100
AcDbSymbolTable
 70
     4
  0
BLOCK_RECORD
  5
1F
330
1
100
AcDbSymbolTableRecord
100
AcDbBlockTableRecord
  2
*Model_Space
340
22
  0
BLOCK_RECORD
  5
1B
330
1
100
AcDbSymbolTableRecord
100
AcDbBlockTableRecord
  2
*Paper_Space
340
1E
  0
BLOCK_RECORD
  5
5E
330
1
100
AcDbSymbolTableRecord
100
AcDbBlockTableRecord
  2
SE
340
0
102
{BLKREFS
331
5F
102
}
  0
BLOCK_RECORD
  5
16C
330
1
100
AcDbSymbolTableRecord
100
AcDbBlockTableRecord
  2
SE1
340
0
102
{BLKREFS
331
16D
102
}
  0
BLOCK_RECORD
  5
1B5
330
1
100
AcDbSymbolTableRecord
100
AcDbBlockTableRecord
  2
SE2
340
0
102
{BLKREFS
331
1B6
102
}
  0
ENDTAB
  0
ENDSEC
  0
SECTION
  2
BLOCKS
  0
BLOCK
  5
20
330
1F
100
AcDbEntity
  8
0
100
AcDbBlockBegin
  2
*Model_Space
 70
     0
 10
0.0
 20
0.0
 30
0.0
  3
*Model_Space
  1

  0
ENDBLK
  5
21
330
1F
100
AcDbEntity
  8
0
100
AcDbBlockEnd
  0
BLOCK
  5
1C
330
1B
100
AcDbEntity
 67
     1
  8
0
100
AcDbBlockBegin
  2
*Paper_Space
 70
     0
 10
0.0
 20
0.0
 30
0.0
  3
*Paper_Space
  1

  0
ENDBLK
  5
1D
330
1B
100
AcDbEntity
 67
     1
  8
0
100
AcDbBlockEnd
  0
BLOCK
  5
16A
330
5E
100
AcDbEntity
  8
0
100
AcDbBlockBegin
  2
SE
 70
     0
 10
0.0
 20
0.0
 30
0.0
  3
SE
  1

  0
SPLINE
  5
61
330
5E
100
AcDbEntity
  8
$DDT_AUDIT_GENERATED_(60)
  6
Continuous
 62
     7
100
AcDbSpline
210
0.0
220
0.0
230
1.0
 70
     8
 71
     3
 72
     9
 73
     5
 74
     0
 42
0.000000000741358
 43
0.0000000001
 40
0.9617484270378345
 40
0.9617484270378345
 40
0.9617484270378345
 40
0.9617484270378345
 40
0.9629177416849459
 40
0.9635189477428919
 40
0.9635189477428919
 40
0.9635189477428919
 40
0.9635189477428919
 10
56.6382646027825
 20
429.8502828537355
 30
0.0
 10
56.63809381565113
 20
429.8450346606934
 30
0.0
 10
56.63772169291511
 20
429.8370870772906
 30
0.0
 10
56.63717614180486
 20
429.829138049715
 30
0.0
 10
56.63697121919774
 20
429.8264386779624
 30
0.0
  0
ARC
  5
62
330
5E
100
AcDbEntity
  8
$DDT_AUDIT_GENERATED_(60)
  6
Continuous
 62
     7
100
AcDbCircle
 10
34.8165965301
 20
9297.1383590507
 30
0.0
 40
8990.669686598601
100
AcDbArc
 50
269.8478390614
 51
270.152109445
  0
ARC
  5
63
330
5E
100
AcDbEntity
  8
$DDT_AUDIT_GENERATED_(60)
  6
Continuous
 62
     7
100
AcDbCircle
 10
-109.4847519841
 20
398.3927119072
 30
0.0
 40
128.0077181311346
100
AcDbArc
 50
3.3676260047
 51
14.776420458
  0
ARC
  5
64
330
5E
100
AcDbEntity
  8
$DDT_AUDIT_GENERATED_(60)
  6
Continuous
 62
     7
100
AcDbCircle
 10
34.8085537669
 20
-265.6704556295
 30
0.0
 40
671.7854638790124
100
AcDbArc
 50
88.5913511586
 51
91.4079727987
  0
ARC
  5
65
330
5E
100
AcDbEntity
  8
$DDT_AUDIT_GENERATED_(60)
  6
Continuous
 62
     7
100
AcDbCircle
 10
175.2604737564
 20
398.9974481748
 30
0.0
 40
124.1300951046219
100
AcDbArc
 50
165.0427235122
 51
176.8067443276
  0
SPLINE
  5
66
330
5E
100
AcDbEntity
  8
$DDT_AUDIT_GENERATED_(60)
  6
Continuous
 62
     7
100
AcDbSpline
210
0.0
220
0.0
230
1.0
 70
     8
 71
     3
 72
    16
 73
    12
 74
     0
 42
0.0000000001124653
 43
0.0000000001
 40
0.0
 40
0.0
 40
0.0
 40
0.0
 40
0.0074908070361466
 40
0.0144582496989264
 40
0.0289801262456925
 40
0.058385352783386
 40
0.0881268693578765
 40
0.1175710263318556
 40
0.1466295679426862
 40
0.17555873436853
 40
0.1903515333370171
 40
0.1903515333370171
 40
0.1903515333370171
 40
0.1903515333370171
 10
13.35428283264713
 20
428.9899269454188
 30
0.0
 10
13.35947673024383
 20
428.7522920569394
 30
0.0
 10
13.3695016405102
 20
428.2936252486595
 30
0.0
 10
13.39777183234721
 20
427.3826783661912
 30
0.0
 10
13.46460413774646
 20
425.8076610256382
 30
0.0
 10
13.61175533169998
 20
423.6003159359967
 30
0.0
 10
13.87126992828387
 20
421.0211920924938
 30
0.0
 10
14.22570305429825
 20
418.4833843589807
 30
0.0
 10
14.69192414592516
 20
415.9807166623268
 30
0.0
 10
15.19421398038901
 20
413.9143814874461
 30
0.0
 10
15.55471769494026
 20
412.6932571275605
 30
0.0
 10
15.68320335344757
 20
412.2841749133379
 30
0.0
  0
SPLINE
  5
67
330
5E
100
AcDbEntity
  8
$DDT_AUDIT_GENERATED_(60)
  6
Continuous
 62
     7
100
AcDbSpline
210
0.0
220
0.0
230
1.0
 70
     8
 71
     3
 72
    16
 73
    12
 74
     0
 42
0.0000000001124971
 43
0.0000000001
 40
0.8092068515683832
 40
0.8092068515683832
 40
0.8092068515683832
 40
0.8092068515683832
 40
0.8234826552046313
 40
0.8526394339874682
 40
0.8820381072642978
 40
0.9115617974321026
 40
0.9412342763909092
 40
0.9571039599576587
 40
0.9708902092745506
 40
0.9860436459470237
 40
1.0
 40
1.0
 40
1.0
 40
1.0
 10
53.92890214593095
 20
412.2428138415863
 30
0.0
 10
54.05333204487089
 20
412.6373759515305
 30
0.0
 10
54.41318885390678
 20
413.8487273344712
 30
0.0
 10
54.91950462489554
 20
415.9149943479337
 30
0.0
 10
55.39159896284615
 20
418.4334517613812
 30
0.0
 10
55.7491227943286
 20
420.9813990128556
 30
0.0
 10
55.97017388349444
 20
423.166885518575
 30
0.0
 10
56.10208923990105
 20
424.9312637555182
 30
0.0
 10
56.18083978312576
 20
426.2886093002324
 30
0.0
 10
56.2382694239756
 20
427.6156761959046
 30
0.0
 10
56.25998836990486
 20
428.5387035054546
 30
0.0
 10
56.27040126850362
 20
428.9812383231788
 30
0.0
  0
SPLINE
  5
68
330
5E
100
AcDbEntity
  8
$DDT_AUDIT_GENERATED_(60)
  6
Continuous
 62
     7
100
AcDbSpline
210
0.0
220
0.0
230
1.0
 70
     8
 71
     3
 72
    11
 73
     7
 74
     0
 42
0.0000000002315611
 43
0.0000000001
 40
0.0
 40
0.0
 40
0.0
 40
0.0
 40
0.024675527725051
 40
0.0538325515890745
 40
0.0872437578021253
 40
0.0906789522044371
 40
0.0906789522044371
 40
0.0906789522044371
 40
0.0906789522044371
 10
52.29665354576802
 20
404.9123706670867
 30
0.0
 10
52.34831213325975
 20
404.5603494033818
 30
0.0
 10
52.46101138764455
 20
403.7923738184216
 30
0.0
 10
52.53791024395554
 20
402.5463600316718
 30
0.0
 10
52.51482406739517
 20
401.5946944299118
 30
0.0
 10
52.47058115736019
 20
401.0626723067393
 30
0.0
 10
52.46618119231293
 20
401.0130647224567
 30
0.0
  0
SPLINE
  5
69
330
5E
100
AcDbEntity
  8
$DDT_AUDIT_GENERATED_(60)
  6
Continuous
 62
     7
100
AcDbSpline
210
0.0
220
0.0
230
1.0
 70
     8
 71
     3
 72
    10
 73
     6
 74
     0
 42
0.0000000002311142
 43
0.0000000001
 40
0.9092585507299394
 40
0.9092585507299394
 40
0.9092585507299394
 40
0.9092585507299394
 40
0.9227038214184227
 40
0.9646867981063831
 40
1.0
 40
1.0
 40
1.0
 40
1.0
 10
17.16015285212221
 20
401.0047027601611
 30
0.0
 10
17.14275965063307
 20
401.1983340773284
 30
0.0
 10
17.08776540450502
 20
401.996425187582
 30
0.0
 10
17.1039904744712
 20
403.3029313894417
 30
0.0
 10
17.25809096126055
 20
404.4078307695845
 30
0.0
 10
17.32849265125042
 20
404.9126103796393
 30
0.0
  0
ELLIPSE
  5
6A
330
5E
100
AcDbEntity
  8
$DDT_AUDIT_GENERATED_(60)
  6
Continuous
 62
     7
100
AcDbEllipse
 10
18.5217022055
 20
404.7969668543
 30
0.0
 11
-1.199295100335649
 21
-0.04112495970702568
 31
0.0
210
0.0
220
0.0
230
1.0
 40
0.9459523627
 41
4.864166098216385
 42
6.144905263005731
  0
ELLIPSE
  5
6B
330
5E
100
AcDbEntity
  8
$DDT_AUDIT_GENERATED_(60)
  6
Continuous
 62
     7
100
AcDbEllipse
 10
51.1034429382
 20
404.7967362002
 30
0.0
 11
1.199294464331764
 21
-0.04114350280512436
 31
0.0
210
0.0
220
0.0
230
1.0
 40
0.9459655502
 41
0.1382864289706911
 42
1.41913049135725
  0
SPLINE
  5
6C
330
5E
100
AcDbEntity
  8
$DDT_AUDIT_GENERATED_(60)
  6
Continuous
 62
     7
100
AcDbSpline
210
0.0
220
0.0
230
1.0
 70
     8
 71
     3
 72
    26
 73
    22
 74
     0
 42
0.0000000001771184
 43
0.0000000001
 40
0.1697989778836519
 40
0.1697989778836519
 40
0.1697989778836519
 40
0.1697989778836519
 40
0.1875
 40
0.1875
 40
0.25
 40
0.25
 40
0.3125
 40
0.3125
 40
0.375
 40
0.375
 40
0.4375
 40
0.4375
 40
0.5
 40
0.5
 40
0.5625
 40
0.5625
 40
0.625
 40
0.625
 40
0.6875
 40
0.6875
 40
0.7397823582163806
 40
0.7397823582163806
 40
0.7397823582163806
 40
0.7397823582163806
 10
46.76566752995769
 20
393.9604757861915
 30
0.0
 10
46.86528630837635
 20
394.1973031566036
 30
0.0
 10
46.94028653075311
 20
394.4333317501138
 30
0.0
 10
47.16365983599024
 20
395.4896759410382
 30
0.0
 10
47.02061917505553
 20
396.2941420185982
 30
0.0
 10
46.12523418180365
 20
397.7343852532282
 30
0.0
 10
45.37070879678379
 20
398.3819493392322
 30
0.0
 10
43.36086103086874
 20
399.4711025762246
 30
0.0
 10
42.1218600974169
 20
399.9097448402206
 30
0.0
 10
39.28273716333128
 20
400.5594916269864
 30
0.0
 10
37.73539097079195
 20
400.7583785309597
 30
0.0
 10
34.53773824809571
 20
400.9013741017845
 30
0.0
 10
32.90630489797842
 20
400.8417249492744
 30
0.0
 10
29.83523560103187
 20
400.4704554605804
 30
0.0
 10
28.37814514837777
 20
400.1554781024073
 30
0.0
 10
25.89145234323484
 20
399.3084770867776
 30
0.0
 10
24.8363701940609
 20
398.7674831204149
 30
0.0
 10
23.30091678488805
 20
397.5116976272521
 30
0.0
 10
22.80805390537833
 20
396.7882788436042
 30
0.0
 10
22.488978645038
 20
395.3515716507883
 30
0.0
 10
22.56390026336186
 20
394.6618044253789
 30
0.0
 10
22.85881789180572
 20
393.9595031322677
 30
0.0
  0
ELLIPSE
  5
6D
330
5E
100
AcDbEntity
  8
$DDT_AUDIT_GENERATED_(60)
  6
Continuous
 62
     7
100
AcDbEllipse
 10
34.8125535967
 20
397.234995979
 30
0.0
 11
-12.00849999999999
 21
-1.387778780781446E-14
 31
0.0
210
0.0
220
0.0
230
1.0
 40
0.5
 41
-3.252289704101657
 42
-3.239270167895687
  0
ELLIPSE
  5
6E
330
5E
100
AcDbEntity
  8
$DDT_AUDIT_GENERATED_(60)
  6
Continuous
 62
     7
100
AcDbEllipse
 10
34.8125535967
 20
397.234995979
 30
0.0
 11
-12.00849999999999
 21
-1.387778780781446E-14
 31
0.0
210
0.0
220
0.0
230
1.0
 40
0.5
 41
0.0988055425828128
 42
0.1106970505118538
  0
SPLINE
  5
6F
330
5E
100
AcDbEntity
  8
$DDT_AUDIT_GENERATED_(60)
  6
Continuous
 62
     7
100
AcDbSpline
210
0.0
220
0.0
230
1.0
 70
     8
 71
     3
 72
    18
 73
    14
 74
     0
 42
0.0000000003608456
 43
0.0000000001
 40
0.0
 40
0.0
 40
0.0
 40
0.0
 40
0.0132356123286767
 40
0.0249299444802832
 40
0.0350670550314701
 40
0.0436396176237363
 40
0.0506492463734301
 40
0.0560208445849938
 40
0.0606981674085552
 40
0.0654013620882586
 40
0.0701314347132558
 40
0.0823141568278693
 40
0.091700025356499
 40
0.091700025356499
 40
0.091700025356499
 40
0.091700025356499
 10
56.63490697155954
 20
429.8278017875602
 30
0.0
 10
56.62834315088364
 20
429.9583491481653
 30
0.0
 10
56.61516701484562
 20
430.1649034247565
 30
0.0
 10
56.52207976981728
 20
430.4852954768085
 30
0.0
 10
56.40115770048529
 20
430.7475899125035
 30
0.0
 10
56.26968187124737
 20
430.9594453412171
 30
0.0
 10
56.14654955126208
 20
431.1210158793659
 30
0.0
 10
56.04133073175364
 20
431.2410288912787
 30
0.0
 10
55.94935336730526
 20
431.3361664096
 30
0.0
 10
55.85711916761417
 20
431.4239608555332
 30
0.0
 10
55.71132564380785
 20
431.5521496678668
 30
0.0
 10
55.52460765959831
 20
431.6959904827996
 30
0.0
 10
55.3631505275666
 20
431.8038993158852
 30
0.0
 10
55.29103048331381
 20
431.8494835919853
 30
0.0
  0
SPLINE
  5
70
330
5E
100
AcDbEntity
  8
$DDT_AUDIT_GENERATED_(60)
  6
Continuous
 62
     7
100
AcDbSpline
210
0.0
220
0.0
230
1.0
 70
     8
 71
     3
 72
    19
 73
    15
 74
     0
 42
0.0000000003627709
 43
0.0000000001
 40
0.907701368253145
 40
0.907701368253145
 40
0.907701368253145
 40
0.907701368253145
 40
0.9106369562994798
 40
0.91867085627817
 40
0.9259236811829172
 40
0.9313747255305395
 40
0.9367670962760796
 40
0.9421036046645379
 40
0.9482234257915166
 40
0.9558227117150202
 40
0.964734309816177
 40
0.9750794671643589
 40
0.9868440464576703
 40
1.0
 40
1.0
 40
1.0
 40
1.0
 10
14.33613317970727
 20
431.8545333924319
 30
0.0
 10
14.31353571456943
 20
431.8402732595019
 30
0.0
 10
14.22987651551408
 20
431.7865250943556
 30
0.0
 10
14.09570207554529
 20
431.6941282346666
 30
0.0
 10
13.94881469856053
 20
431.5818561769327
 30
0.0
 10
13.82472201829679
 20
431.4775134279867
 30
0.0
 10
13.71713420317359
 20
431.3786872198131
 30
0.0
 10
13.60998082625494
 20
431.2706369709198
 30
0.0
 10
13.49097525366161
 20
431.1365793821356
 30
0.0
 10
13.35918556383838
 20
430.9634579713934
 30
0.0
 10
13.22441439619966
 20
430.7440434424754
 30
0.0
 10
13.10429511802891
 20
430.4791602675595
 30
0.0
 10
13.01358670837317
 20
430.1605323448437
 30
0.0
 10
13.0009020330106
 20
429.9560842112646
 30
0.0
 10
12.99462947487576
 20
429.827622102256
 30
0.0
  0
ARC
  5
71
330
5E
100
AcDbEntity
  8
$DDT_AUDIT_GENERATED_(60)
  6
Continuous
 62
     7
100
AcDbCircle
 10
98.1709182043
 20
400.9301469466
 30
0.0
 40
45.6652779184791
100
AcDbArc
 50
165.6549697797
 51
178.9037127871
  0
ARC
  5
72
330
5E
100
AcDbEntity
  8
$DDT_AUDIT_GENERATED_(60)
  6
Continuous
 62
     7
100
AcDbCircle
 10
-28.4016629234
 20
400.949709752
 30
0.0
 40
45.52077751381053
100
AcDbArc
 50
1.0751176252
 51
14.3661914297
  0
SPLINE
  5
73
330
5E
100
AcDbEntity
  8
$DDT_AUDIT_GENERATED_(60)
  6
Continuous
 62
     7
100
AcDbSpline
210
0.0
220
0.0
230
1.0
 70
     8
 71
     3
 72
    28
 73
    24
 74
     0
 42
0.0000000002288539
 43
0.0000000001
 40
0.0
 40
0.0
 40
0.0
 40
0.0
 40
0.0164695092767941
 40
0.0351436704884524
 40
0.0551632753755919
 40
0.0765648819372207
 40
0.0993978940931486
 40
0.1221362102119597
 40
0.1439661019226665
 40
0.1682120523429127
 40
0.1910478818421897
 40
0.2124398641768526
 40
0.2244736843299611
 40
0.2348972170429344
 40
0.2435250004456105
 40
0.2503490516080938
 40
0.2554517145559883
 40
0.2612524405855721
 40
0.2688519454637266
 40
0.2782515361732125
 40
0.289453073476089
 40
0.3024607787158159
 40
0.3121862373556893
 40
0.3121862373556893
 40
0.3121862373556893
 40
0.3121862373556893
 10
17.11594372874411
 20
401.7133288817996
 30
0.0
 10
17.12792375775114
 20
401.4710770828272
 30
0.0
 10
17.15093119804575
 20
401.0351600359335
 30
0.0
 10
17.23650544003175
 20
400.3036500761132
 30
0.0
 10
17.3666258232158
 20
399.5417055232965
 30
0.0
 10
17.55358275952289
 20
398.734726555624
 30
0.0
 10
17.80141278417394
 20
397.9089096314221
 30
0.0
 10
18.11367176657848
 20
397.0799046996985
 30
0.0
 10
18.49924767450661
 20
396.2348997573999
 30
0.0
 10
18.95990701640095
 20
395.3925594422929
 30
0.0
 10
19.49749404704564
 20
394.5627122830501
 30
0.0
 10
20.00409546608121
 20
393.8891416919634
 30
0.0
 10
20.44091212529945
 20
393.3709661061493
 30
0.0
 10
20.7703749607477
 20
393.0078075505999
 30
0.0
 10
21.05869608589293
 20
392.7089444020975
 30
0.0
 10
21.29681603612718
 20
392.474030504779
 30
0.0
 10
21.5082632213614
 20
392.2732246571352
 30
0.0
 10
21.73469371828974
 20
392.06552954271
 30
0.0
 10
22.02247482868281
 20
391.8125940799336
 30
0.0
 10
22.39224953299741
 20
391.5048042555123
 30
0.0
 10
22.85295332106389
 20
391.1460238830565
 30
0.0
 10
23.34185802146612
 20
390.79439547213
 30
0.0
 10
23.68422427770187
 20
390.5663592858627
 30
0.0
 10
23.83337961753389
 20
390.4703013943703
 30
0.0
  0
SPLINE
  5
74
330
5E
100
AcDbEntity
  8
$DDT_AUDIT_GENERATED_(60)
  6
Continuous
 62
     7
100
AcDbSpline
210
0.0
220
0.0
230
1.0
 70
     8
 71
     3
 72
    25
 73
    21
 74
     0
 42
0.0000000002279126
 43
0.0000000001
 40
0.6899972742169102
 40
0.6899972742169102
 40
0.6899972742169102
 40
0.6899972742169102
 40
0.7038144905894497
 40
0.7212493195609803
 40
0.7375131069838451
 40
0.7527029776001537
 40
0.7687195119622869
 40
0.7832755034883363
 40
0.7963536837991224
 40
0.8088739961569064
 40
0.823289186351216
 40
0.8397323992578128
 40
0.858202687529035
 40
0.8782632629888008
 40
0.9002438219492891
 40
0.9230330345979787
 40
0.9442821540083767
 40
0.9648371340823643
 40
0.9837136886484835
 40
1.0
 40
1.0
 40
1.0
 40
1.0
 10
45.79289441457531
 20
390.4730142319248
 30
0.0
 10
46.00417827612425
 20
390.6090290660662
 30
0.0
 10
46.46997398232048
 20
390.9233336229915
 30
0.0
 10
47.13601355424345
 20
391.4221404550999
 30
0.0
 10
47.77250173106576
 20
391.9557208346136
 30
0.0
 10
48.34844247894819
 20
392.4893752533405
 30
0.0
 10
48.86447935227748
 20
393.0172978251592
 30
0.0
 10
49.32124068406324
 20
393.5323244986749
 30
0.0
 10
49.71302005527144
 20
394.0158616255068
 30
0.0
 10
50.07737296899347
 20
394.5061876065649
 30
0.0
 10
50.43743117615393
 20
395.0376917738163
 30
0.0
 10
50.80586102614082
 20
395.6444518126581
 30
0.0
 10
51.16691556327273
 20
396.3220450442068
 30
0.0
 10
51.50784114574709
 20
397.0688345354768
 30
0.0
 10
51.8108221999731
 20
397.8682367835243
 30
0.0
 10
52.05757939133076
 20
398.6819506552852
 30
0.0
 10
52.24840834781143
 20
399.4923695615543
 30
0.0
 10
52.38260601479423
 20
400.2606488873702
 30
0.0
 10
52.4716142917318
 20
400.999473122798
 30
0.0
 10
52.49592773476324
 20
401.4368424325643
 30
0.0
 10
52.50849494115222
 20
401.6769998452339
 30
0.0
  0
LINE
  5
75
330
5E
100
AcDbEntity
  8
$DDT_AUDIT_GENERATED_(60)
  6
Continuous
 62
     7
100
AcDbLine
 10
58.6850911311
 20
306.5004066454
 30
0.0
 11
56.6374103255
 21
429.8523800802
 31
0.0
  0
LINE
  5
76
330
5E
100
AcDbEntity
  8
$DDT_AUDIT_GENERATED_(60)
  6
Continuous
 62
     7
100
AcDbLine
 10
12.9877928515
 20
429.8581621108
 30
0.0
 11
10.9400156316
 21
306.5003806926
 31
0.0
  0
ARC
  5
78
330
5E
100
AcDbEntity
  8
$DDT_AUDIT_GENERATED_(77)
  6
Continuous
 62
     7
100
AcDbCircle
 10
34.8125537759
 20
422.2941418868
 30
0.0
 40
22.59999999999999
100
AcDbArc
 50
25.1518919141
 51
25.9562432918
  0
ARC
  5
79
330
5E
100
AcDbEntity
  8
$DDT_AUDIT_GENERATED_(77)
  6
Continuous
 62
     7
100
AcDbCircle
 10
34.8125537759
 20
422.2941418868
 30
0.0
 40
22.59999999999999
100
AcDbArc
 50
154.0236623273
 51
154.8481080859
  0
SPLINE
  5
7A
330
5E
100
AcDbEntity
  8
$DDT_AUDIT_GENERATED_(77)
  6
Continuous
 62
     7
100
AcDbSpline
210
0.0
220
0.0
230
1.0
 70
     8
 71
     3
 72
    82
 73
    78
 74
     0
 42
0.000000000229802
 43
0.0000000001
 40
0.0
 40
0.0
 40
0.0
 40
0.0
 40
0.0014462968624623
 40
0.012647711717777
 40
0.024532277282783
 40
0.0359841199042598
 40
0.047388968841181
 40
0.0591083012039714
 40
0.0715004552266933
 40
0.0847168366686621
 40
0.0986140129744929
 40
0.1128540956663251
 40
0.1271367474109073
 40
0.1413335027122382
 40
0.1554329871940952
 40
0.1694480801228148
 40
0.1833955849547215
 40
0.1972903046270429
 40
0.211143980511135
 40
0.2249656066279318
 40
0.2387620091383739
 40
0.2525383776908794
 40
0.2662986842638131
 40
0.2800459963261228
 40
0.2937827065777384
 40
0.3075107007570096
 40
0.321231480539174
 40
0.3349462541089728
 40
0.3486560034534079
 40
0.362361534813802
 40
0.3760635168758876
 40
0.3897625099655629
 40
0.4034589885970572
 40
0.4171533590721058
 40
0.4308459733708256
 40
0.4445371402494357
 40
0.4582271342273725
 40
0.4719162029793006
 40
0.4856045735271858
 40
0.4992924575409901
 40
0.5129800559946962
 40
0.5266675633810403
 40
0.5403551391108993
 40
0.5540429444993216
 40
0.5677311760382387
 40
0.5814200381007301
 40
0.5951097472309993
 40
0.608800536917604
 40
0.6224926630533396
 40
0.6361864103355898
 40
0.6498820999251629
 40
0.6635800987713963
 40
0.6772808311354656
 40
0.6909847930159557
 40
0.7046925704196597
 40
0.7184048627543022
 40
0.7321225130879008
 40
0.7458465476799429
 40
0.7595782281242585
 40
0.7733191207681498
 40
0.7870711899407259
 40
0.8008369241209324
 40
0.8146195076622662
 40
0.8284230549953909
 40
0.8422529284070369
 40
0.8561161608173297
 40
0.8700219893551451
 40
0.8839824370999377
 40
0.89801264910979
 40
0.9121299712275076
 40
0.9263486481352554
 40
0.9406613997392815
 40
0.9549487380638341
 40
0.9673763274934166
 40
0.9790233980601781
 40
0.9900883495418067
 40
1.0
 40
1.0
 40
1.0
 40
1.0
 10
14.35831877071946
 20
431.9014200167917
 30
0.0
 10
14.35385088282526
 20
431.8935469644504
 30
0.0
 10
14.32041946577784
 20
431.8343718162029
 30
0.0
 10
14.27977845079388
 20
431.6979183549081
 30
0.0
 10
14.25285120119752
 20
431.5087249198602
 30
0.0
 10
14.26969117447637
 20
431.3143289096932
 30
0.0
 10
14.32460921271056
 20
431.1287493988076
 30
0.0
 10
14.41610202708726
 20
430.9495882717294
 30
0.0
 10
14.54497604922388
 20
430.7743182552994
 30
0.0
 10
14.71439565912087
 20
430.6007670955372
 30
0.0
 10
14.92658807363912
 20
430.4289647610356
 30
0.0
 10
15.18097947307953
 20
430.2604163317521
 30
0.0
 10
15.47478106691065
 20
430.096693749332
 30
0.0
 10
15.80516777093716
 20
429.938462792429
 30
0.0
 10
16.17050460515568
 20
429.7855903117871
 30
0.0
 10
16.57001894187523
 20
429.6377043105308
 30
0.0
 10
17.00312888559609
 20
429.4945351160834
 30
0.0
 10
17.46925253311758
 20
429.3559405310961
 30
0.0
 10
17.96773593783939
 20
429.2218823600633
 30
0.0
 10
18.49783168328929
 20
429.0923973046052
 30
0.0
 10
19.05869669388127
 20
428.9675731933643
 30
0.0
 10
19.64939673057389
 20
428.8475315383719
 30
0.0
 10
20.26891278143009
 20
428.7324151401872
 30
0.0
 10
20.91614760472139
 20
428.6223793182163
 30
0.0
 10
21.58993186056408
 20
428.5175856567978
 30
0.0
 10
22.28902971352353
 20
428.4181974836137
 30
0.0
 10
23.01214394673027
 20
428.3243765459204
 30
0.0
 10
23.7579206734348
 20
428.2362805234333
 30
0.0
 10
24.52495373478736
 20
428.1540611335298
 30
0.0
 10
25.31178886117869
 20
428.0778626624261
 30
0.0
 10
26.11692765980659
 20
428.0078208080824
 30
0.0
 10
26.93883147734627
 20
427.9440617556139
 30
0.0
 10
27.77592517493583
 20
427.8867014297197
 30
0.0
 10
28.62660084328454
 20
427.8358448848973
 30
0.0
 10
29.48922147830843
 20
427.7915858054572
 30
0.0
 10
30.36212463194919
 20
427.7540060952281
 30
0.0
 10
31.24362604839924
 20
427.7231755423993
 30
0.0
 10
32.13202329256033
 20
427.6991515489485
 30
0.0
 10
33.02559937496714
 20
427.6819789170003
 30
0.0
 10
33.92262637548355
 20
427.6716896865937
 30
0.0
 10
34.82136906652671
 20
427.6683030209645
 30
0.0
 10
35.72008782355431
 20
427.6718251339151
 30
0.0
 10
36.61704226631871
 20
427.6822492332925
 30
0.0
 10
37.51049556417663
 20
427.6995555203567
 30
0.0
 10
38.39871875282917
 20
427.7237112739176
 30
0.0
 10
39.27999429288992
 20
427.754670978461
 30
0.0
 10
40.15261898669561
 20
427.7923764606799
 30
0.0
 10
41.01490757065321
 20
427.8367570818196
 30
0.0
 10
41.86519630078101
 20
427.8877299819651
 30
0.0
 10
42.70184653341745
 20
427.9452003820365
 30
0.0
 10
43.52324830519455
 20
428.0090619515109
 30
0.0
 10
44.32782391889873
 20
428.0791972529466
 30
0.0
 10
45.11403154523233
 20
428.155478278654
 30
0.0
 10
45.88036885494119
 20
428.2377671007844
 30
0.0
 10
46.62537670164242
 20
428.3259166646088
 30
0.0
 10
47.34764288339363
 20
428.419771766948
 30
0.0
 10
48.04580602115469
 20
428.5191702795454
 30
0.0
 10
48.7185596054538
 20
428.6239447035016
 30
0.0
 10
49.36465627948175
 20
428.7339241803675
 30
0.0
 10
49.98291244798665
 20
428.8489371454922
 30
0.0
 10
50.57221332627016
 20
428.9688149015952
 30
0.0
 10
51.1315185695206
 20
429.0933965351991
 30
0.0
 10
51.65986863928663
 20
429.2225358260266
 30
0.0
 10
52.15639204731387
 20
429.3561111680654
 30
0.0
 10
52.62031348961104
 20
429.4940400918265
 30
0.0
 10
53.05096251154843
 20
429.6363009579069
 30
0.0
 10
53.44778116366353
 20
429.7829656103244
 30
0.0
 10
53.81032655970458
 20
429.9342494150599
 30
0.0
 10
54.13825575112406
 20
430.0905838530875
 30
0.0
 10
54.4312669442084
 20
430.2527237534886
 30
0.0
 10
54.68891452944199
 20
430.4218364474164
 30
0.0
 10
54.91001433853914
 20
430.5994054852876
 30
0.0
 10
55.08537112436463
 20
430.7796549976493
 30
0.0
 10
55.21596808677771
 20
430.9609246771006
 30
0.0
 10
55.30379303419897
 20
431.1378178141117
 30
0.0
 10
55.35594026294062
 20
431.3172963328883
 30
0.0
 10
55.36229129482449
 20
431.4254862887221
 30
0.0
 10
55.36514699475058
 20
431.4862800525843
 30
0.0
  0
ARC
  5
7B
330
5E
100
AcDbEntity
  8
$DDT_AUDIT_GENERATED_(77)
  6
Continuous
 62
     7
100
AcDbCircle
 10
54.46719827
 20
431.4903914254
 30
0.0
 40
0.8979581369722694
100
AcDbArc
 50
359.7376657982
 51
28.4251459348
  0
ELLIPSE
  5
7D
330
5E
100
AcDbEntity
  8
$DDT_AUDIT_GENERATED_(7C)
  6
Continuous
 62
     7
100
AcDbEllipse
 10
34.8125535967
 20
390.2122736959
 30
0.0
 11
11.85999999999214
 21
-1.035282970462958E-11
 31
0.0
210
0.0
220
0.0
230
1.0
 40
0.5
 41
3.699114812239848
 42
5.667926796975281
  0
ELLIPSE
  5
7E
330
5E
100
AcDbEntity
  8
$DDT_AUDIT_GENERATED_(7C)
  6
Continuous
 62
     7
100
AcDbEllipse
 10
34.8125535967
 20
389.6572736959
 30
0.0
 11
10.075
 21
0.0
 31
0.0
210
0.0
220
0.0
230
1.0
 40
0.5
 41
0.0
 42
6.283185307179586
  0
ELLIPSE
  5
7F
330
5E
100
AcDbEntity
  8
$DDT_AUDIT_GENERATED_(7C)
  6
Continuous
 62
     7
100
AcDbEllipse
 10
34.8125535967
 20
387.4606702303
 30
0.0
 11
-11.61572668929755
 21
-7.178913898015185
 31
0.0
210
0.0
220
0.0
230
1.0
 40
0.3819660113
 41
2.505942759928607
 42
3.313594938250178
  0
LINE
  5
80
330
5E
100
AcDbEntity
  8
$DDT_AUDIT_GENERATED_(7C)
  6
Continuous
 62
     7
100
AcDbLine
 10
45.7875535967
 20
392.6696404298
 30
0.0
 11
45.7875535967
 21
395.2930369642
 31
0.0
  0
LINE
  5
81
330
5E
100
AcDbEntity
  8
$DDT_AUDIT_GENERATED_(7C)
  6
Continuous
 62
     7
100
AcDbLine
 10
45.7875535967
 20
392.4599933737
 30
0.0
 11
45.7875535967
 21
392.6696404298
 31
0.0
  0
LINE
  5
82
330
5E
100
AcDbEntity
  8
$DDT_AUDIT_GENERATED_(7C)
  6
Continuous
 62
     7
100
AcDbLine
 10
45.7875535967
 20
387.9645540181
 30
0.0
 11
45.7875535967
 21
392.4599933737
 31
0.0
  0
ELLIPSE
  5
83
330
5E
100
AcDbEntity
  8
$DDT_AUDIT_GENERATED_(7C)
  6
Continuous
 62
     7
100
AcDbEllipse
 10
34.8125535967
 20
387.4606702303
 30
0.0
 11
11.61572668929752
 21
-7.178913898015117
 31
0.0
210
0.0
220
0.0
230
1.0
 40
0.3819660113
 41
2.969590368929401
 42
3.777242547250978
  0
LINE
  5
84
330
5E
100
AcDbEntity
  8
$DDT_AUDIT_GENERATED_(7C)
  6
Continuous
 62
     7
100
AcDbLine
 10
23.8375535967
 20
392.6696404298
 30
0.0
 11
23.8375535967
 21
395.2930369642
 31
0.0
  0
LINE
  5
85
330
5E
100
AcDbEntity
  8
$DDT_AUDIT_GENERATED_(7C)
  6
Continuous
 62
     7
100
AcDbLine
 10
23.8375535967
 20
392.4599933737
 30
0.0
 11
23.8375535967
 21
392.6696404298
 31
0.0
  0
LINE
  5
86
330
5E
100
AcDbEntity
  8
$DDT_AUDIT_GENERATED_(7C)
  6
Continuous
 62
     7
100
AcDbLine
 10
23.8375535967
 20
387.9645540181
 30
0.0
 11
23.8375535967
 21
392.4599933737
 31
0.0
  0
LINE
  5
87
330
5E
100
AcDbEntity
  8
$DDT_AUDIT_GENERATED_(7C)
  6
Continuous
 62
     7
100
AcDbLine
 10
22.8775535967
 20
396.6522222831
 30
0.0
 11
22.8775535967
 21
393.4281702303
 31
0.0
  0
LINE
  5
88
330
5E
100
AcDbEntity
  8
$DDT_AUDIT_GENERATED_(7C)
  6
Continuous
 62
     7
100
AcDbLine
 10
46.7475535967
 20
393.4281702303
 30
0.0
 11
46.7475535967
 21
396.6552058981
 31
0.0
  0
ARC
  5
89
330
5E
100
AcDbEntity
  8
$DDT_AUDIT_GENERATED_(7C)
  6
Continuous
 62
     7
100
AcDbCircle
 10
40.919221137
 20
392.0814774284
 30
0.0
 40
6.389328675832716
100
AcDbArc
 50
304.3014570786
 51
319.6281136138
  0
ARC
  5
8A
330
5E
100
AcDbEntity
  8
$DDT_AUDIT_GENERATED_(7C)
  6
Continuous
 62
     7
100
AcDbCircle
 10
28.3160092982
 20
391.7179491958
 30
0.0
 40
5.858283163545527
100
AcDbArc
 50
220.1359586856
 51
232.1364468583
  0
ELLIPSE
  5
8C
330
5E
100
AcDbEntity
  8
$DDT_AUDIT_GENERATED_(8B)
  6
Continuous
 62
     7
100
AcDbEllipse
 10
34.8125535967
 20
389.3541648046
 30
0.0
 11
-9.0
 21
-1.387778780781446E-14
 31
0.0
210
0.0
220
0.0
230
1.0
 40
0.5
 41
0.0
 42
6.283185307179586
  0
ELLIPSE
  5
8D
330
5E
100
AcDbEntity
  8
$DDT_AUDIT_GENERATED_(8B)
  6
Continuous
 62
     7
100
AcDbEllipse
 10
34.8125535967
 20
391.6924333948
 30
0.0
 11
-9.0
 21
-1.387778780781446E-14
 31
0.0
210
0.0
220
0.0
230
1.0
 40
0.5
 41
6.229408148674532
 42
6.283185307179584
  0
ELLIPSE
  5
8E
330
5E
100
AcDbEntity
  8
$DDT_AUDIT_GENERATED_(8B)
  6
Continuous
 62
     7
100
AcDbEllipse
 10
34.8125535967
 20
391.6924333948
 30
0.0
 11
-9.0
 21
-1.387778780781446E-14
 31
0.0
210
0.0
220
0.0
230
1.0
 40
0.5
 41
3.14159265358979
 42
3.195369812094853
  0
ELLIPSE
  5
8F
330
5E
100
AcDbEntity
  8
$DDT_AUDIT_GENERATED_(8B)
  6
Continuous
 62
     7
100
AcDbEllipse
 10
34.8125535967
 20
389.3541648046
 30
0.0
 11
-5.249999999999998
 21
0.0
 31
0.0
210
0.0
220
0.0
230
1.0
 40
0.5
 41
0.0
 42
6.283185307179586
  0
ELLIPSE
  5
90
330
5E
100
AcDbEntity
  8
$DDT_AUDIT_GENERATED_(8B)
  6
Continuous
 62
     7
100
AcDbEllipse
 10
34.8125535967
 20
389.3541648046
 30
0.0
 11
-6.249999999999998
 21
0.0
 31
0.0
210
0.0
220
0.0
230
1.0
 40
0.5
 41
0.0
 42
6.283185307179586
  0
ELLIPSE
  5
91
330
5E
100
AcDbEntity
  8
$DDT_AUDIT_GENERATED_(8B)
  6
Continuous
 62
     7
100
AcDbEllipse
 10
34.8125535967
 20
389.3541648046
 30
0.0
 11
-2.750000000000002
 21
0.0
 31
0.0
210
0.0
220
0.0
230
1.0
 40
0.5
 41
0.0
 42
6.283185307179586
  0
ELLIPSE
  5
92
330
5E
100
AcDbEntity
  8
$DDT_AUDIT_GENERATED_(8B)
  6
Continuous
 62
     7
100
AcDbEllipse
 10
34.8125535967
 20
389.3541648046
 30
0.0
 11
2.150000000000001
 21
0.0
 31
0.0
210
0.0
220
0.0
230
1.0
 40
0.5
 41
0.0
 42
6.283185307179586
  0
ELLIPSE
  5
93
330
5E
100
AcDbEntity
  8
$DDT_AUDIT_GENERATED_(8B)
  6
Continuous
 62
     7
100
AcDbEllipse
 10
34.8125535967
 20
389.5273698853
 30
0.0
 11
0.5196299438963563
 21
0.0
 31
0.0
210
0.0
220
0.0
230
1.0
 40
0.5
 41
0.0
 42
6.283185307179586
  0
ELLIPSE
  5
94
330
5E
100
AcDbEntity
  8
$DDT_AUDIT_GENERATED_(8B)
  6
Continuous
 62
     7
100
AcDbEllipse
 10
34.8125535967
 20
389.3541648046
 30
0.0
 11
-8.700000000000005
 21
-1.387778780781446E-14
 31
0.0
210
0.0
220
0.0
230
1.0
 40
0.5
 41
0.0
 42
6.283185307179586
  0
ARC
  5
95
330
5E
100
AcDbEntity
  8
$DDT_AUDIT_GENERATED_(8B)
  6
Continuous
 62
     7
100
AcDbCircle
 10
34.8125535967
 20
402.2764875018
 30
0.0
 40
16.99911762407545
100
AcDbArc
 50
269.6629465644
 51
270.3370534356
  0
ELLIPSE
  5
96
330
5E
100
AcDbEntity
  8
$DDT_AUDIT_GENERATED_(8B)
  6
Continuous
 62
     7
100
AcDbEllipse
 10
34.8125535967
 20
389.5273698853
 30
0.0
 11
8.500000000010475
 21
-1.859623566247137E-12
 31
0.0
210
0.0
220
0.0
230
1.0
 40
0.5
 41
4.724153957673212
 42
4.962423390895894
  0
LINE
  5
97
330
5E
100
AcDbEntity
  8
$DDT_AUDIT_GENERATED_(8B)
  6
Continuous
 62
     7
100
AcDbLine
 10
34.7125535967
 20
386.2295648302
 30
0.0
 11
34.7125535967
 21
385.2776640131
 31
0.0
  0
LINE
  5
98
330
5E
100
AcDbEntity
  8
$DDT_AUDIT_GENERATED_(8B)
  6
Continuous
 62
     7
100
AcDbLine
 10
34.9125535967
 20
386.2295648302
 30
0.0
 11
34.9125535967
 21
385.2776640131
 31
0.0
  0
LINE
  5
99
330
5E
100
AcDbEntity
  8
$DDT_AUDIT_GENERATED_(8B)
  6
Continuous
 62
     7
100
AcDbLine
 10
35.0625535967
 20
388.6738284392
 30
0.0
 11
35.0625535967
 21
389.2996006608
 31
0.0
  0
LINE
  5
9A
330
5E
100
AcDbEntity
  8
$DDT_AUDIT_GENERATED_(8B)
  6
Continuous
 62
     7
100
AcDbLine
 10
34.5625535967
 20
388.6738284392
 30
0.0
 11
34.5625535967
 21
389.2996006608
 31
0.0
  0
ELLIPSE
  5
9B
330
5E
100
AcDbEntity
  8
$DDT_AUDIT_GENERATED_(8B)
  6
Continuous
 62
     7
100
AcDbEllipse
 10
34.8125535967
 20
389.7415362644
 30
0.0
 11
-2.14999999999659
 21
1.110223024625157E-13
 31
0.0
210
0.0
220
0.0
230
1.0
 40
0.5
 41
1.454253618345404
 42
1.68733903524445
  0
LINE
  5
9C
330
5E
100
AcDbEntity
  8
$DDT_AUDIT_GENERATED_(8B)
  6
Continuous
 62
     7
100
AcDbLine
 10
34.5430457274
 20
389.9636740521
 30
0.0
 11
34.5430457274
 21
390.4206854922
 31
0.0
  0
ELLIPSE
  5
9D
330
5E
100
AcDbEntity
  8
$DDT_AUDIT_GENERATED_(8B)
  6
Continuous
 62
     7
100
AcDbEllipse
 10
34.8125535967
 20
389.7415362644
 30
0.0
 11
-0.5196299438963499
 21
-1.387778780781446E-14
 31
0.0
210
0.0
220
0.0
230
1.0
 40
0.5
 41
5.257664250556992
 42
6.261508812605691
  0
LINE
  5
9E
330
5E
100
AcDbEntity
  8
$DDT_AUDIT_GENERATED_(8B)
  6
Continuous
 62
     7
100
AcDbLine
 10
33.1971088086
 20
390.0635374387
 30
0.0
 11
34.2930457274
 21
389.7471677012
 31
0.0
  0
LINE
  5
9F
330
5E
100
AcDbEntity
  8
$DDT_AUDIT_GENERATED_(8B)
  6
Continuous
 62
     7
100
AcDbLine
 10
33.5905386674
 20
390.2386391559
 30
0.0
 11
34.5430457274
 21
389.9636740521
 31
0.0
  0
ELLIPSE
  5
A0
330
5E
100
AcDbEntity
  8
$DDT_AUDIT_GENERATED_(8B)
  6
Continuous
 62
     7
100
AcDbEllipse
 10
34.8125535967
 20
389.7415362644
 30
0.0
 11
0.5196299438963565
 21
0.0
 31
0.0
210
0.0
220
0.0
230
1.0
 40
0.5
 41
0.0216764945744843
 42
1.025521056622605
  0
LINE
  5
A1
330
5E
100
AcDbEntity
  8
$DDT_AUDIT_GENERATED_(8B)
  6
Continuous
 62
     7
100
AcDbLine
 10
36.0345685261
 20
390.2386391559
 30
0.0
 11
35.0820614661
 21
389.9636740521
 31
0.0
  0
LINE
  5
A2
330
5E
100
AcDbEntity
  8
$DDT_AUDIT_GENERATED_(8B)
  6
Continuous
 62
     7
100
AcDbLine
 10
35.0820614661
 20
389.9636740521
 30
0.0
 11
35.0820614661
 21
390.4206854922
 31
0.0
  0
LINE
  5
A3
330
5E
100
AcDbEntity
  8
$DDT_AUDIT_GENERATED_(8B)
  6
Continuous
 62
     7
100
AcDbLine
 10
36.4279983849
 20
390.0635374387
 30
0.0
 11
35.3320614661
 21
389.7471677012
 31
0.0
  0
ELLIPSE
  5
A4
330
5E
100
AcDbEntity
  8
$DDT_AUDIT_GENERATED_(8B)
  6
Continuous
 62
     7
100
AcDbEllipse
 10
34.8125534746
 20
389.5273696575
 30
0.0
 11
-8.499999748306088
 21
7.865938456141919E-8
 31
0.0
210
0.0
220
0.0
230
1.0
 40
0.499999988
 41
1.297231972947963
 42
1.320761928177109
  0
ELLIPSE
  5
A5
330
5E
100
AcDbEntity
  8
$DDT_AUDIT_GENERATED_(8B)
  6
Continuous
 62
     7
100
AcDbEllipse
 10
34.8125535967
 20
389.5273698853
 30
0.0
 11
-8.500000000016859
 21
-3.094746681142624E-12
 31
0.0
210
0.0
220
0.0
230
1.0
 40
0.5
 41
1.32076191628361
 42
1.559031349506115
  0
LINE
  5
A6
330
5E
100
AcDbEntity
  8
$DDT_AUDIT_GENERATED_(8B)
  6
Continuous
 62
     7
100
AcDbLine
 10
32.5161513825
 20
385.4354101815
 30
0.0
 11
32.5161513825
 21
386.4477479009
 31
0.0
  0
LINE
  5
A7
330
5E
100
AcDbEntity
  8
$DDT_AUDIT_GENERATED_(8B)
  6
Continuous
 62
     7
100
AcDbLine
 10
33.0124843908
 20
386.3615801836
 30
0.0
 11
32.5161513825
 21
385.4354101815
 31
0.0
  0
LINE
  5
A8
330
5E
100
AcDbEntity
  8
$DDT_AUDIT_GENERATED_(8B)
  6
Continuous
 62
     7
100
AcDbLine
 10
33.2049268219
 20
386.3343123184
 30
0.0
 11
32.7093365478
 21
385.409528277
 31
0.0
  0
ELLIPSE
  5
A9
330
5E
100
AcDbEntity
  8
$DDT_AUDIT_GENERATED_(8B)
  6
Continuous
 62
     7
100
AcDbEllipse
 10
34.8125533779
 20
389.5273696957
 30
0.0
 11
-8.499999726339944
 21
1.263917442928530E-7
 31
0.0
210
0.0
220
0.0
230
1.0
 40
0.4999999936
 41
1.035432592187637
 42
1.05896254736995
  0
ELLIPSE
  5
AA
330
5E
100
AcDbEntity
  8
$DDT_AUDIT_GENERATED_(8B)
  6
Continuous
 62
     7
100
AcDbEllipse
 10
34.8125535967
 20
389.5273698853
 30
0.0
 11
-8.499999999983819
 21
6.786238238021269E-12
 31
0.0
210
0.0
220
0.0
230
1.0
 40
0.5
 41
1.058962528485492
 42
1.297231961708856
  0
LINE
  5
AB
330
5E
100
AcDbEntity
  8
$DDT_AUDIT_GENERATED_(8B)
  6
Continuous
 62
     7
100
AcDbLine
 10
30.4762451842
 20
385.8720166414
 30
0.0
 11
30.4762451842
 21
387.1036687842
 31
0.0
  0
LINE
  5
AC
330
5E
100
AcDbEntity
  8
$DDT_AUDIT_GENERATED_(8B)
  6
Continuous
 62
     7
100
AcDbLine
 10
31.4539381246
 20
386.7187235649
 30
0.0
 11
30.4762451842
 21
385.8720166414
 31
0.0
  0
LINE
  5
AD
330
5E
100
AcDbEntity
  8
$DDT_AUDIT_GENERATED_(8B)
  6
Continuous
 62
     7
100
AcDbLine
 10
31.6243705038
 20
386.6663223349
 30
0.0
 11
30.6494502649
 21
385.8220166414
 31
0.0
  0
ELLIPSE
  5
AE
330
5E
100
AcDbEntity
  8
$DDT_AUDIT_GENERATED_(8B)
  6
Continuous
 62
     7
100
AcDbEllipse
 10
34.8125532874
 20
389.5273697305
 30
0.0
 11
-8.499999671829663
 21
1.458963366784971E-7
 31
0.0
210
0.0
220
0.0
230
1.0
 40
0.5
 41
0.7736332072556312
 42
0.7971631624375429
  0
ELLIPSE
  5
AF
330
5E
100
AcDbEntity
  8
$DDT_AUDIT_GENERATED_(8B)
  6
Continuous
 62
     7
100
AcDbEllipse
 10
34.8125535967
 20
389.5273698853
 30
0.0
 11
-8.499999999999311
 21
-8.326672684688675E-14
 31
0.0
210
0.0
220
0.0
230
1.0
 40
0.5
 41
0.7971631406855485
 42
1.035432573908531
  0
LINE
  5
B0
330
5E
100
AcDbEntity
  8
$DDT_AUDIT_GENERATED_(8B)
  6
Continuous
 62
     7
100
AcDbLine
 10
28.7318512381
 20
386.5577293841
 30
0.0
 11
28.7318512381
 21
387.7142872866
 31
0.0
  0
LINE
  5
B1
330
5E
100
AcDbEntity
  8
$DDT_AUDIT_GENERATED_(8B)
  6
Continuous
 62
     7
100
AcDbLine
 10
30.1559566685
 20
387.2697820993
 30
0.0
 11
28.7318512381
 21
386.5577293841
 31
0.0
  0
LINE
  5
B2
330
5E
100
AcDbEntity
  8
$DDT_AUDIT_GENERATED_(8B)
  6
Continuous
 62
     7
100
AcDbLine
 10
30.2918304882
 20
387.1962976529
 30
0.0
 11
28.8732725943
 21
386.487018706
 31
0.0
  0
ELLIPSE
  5
B3
330
5E
100
AcDbEntity
  8
$DDT_AUDIT_GENERATED_(8B)
  6
Continuous
 62
     7
100
AcDbEllipse
 10
34.8125531879
 20
389.5273697673
 30
0.0
 11
-8.499999586875665
 21
1.362948781613582E-7
 31
0.0
210
0.0
220
0.0
230
1.0
 40
0.5000000069
 41
0.5118338180281692
 42
0.5353637732578201
  0
ELLIPSE
  5
B4
330
5E
100
AcDbEntity
  8
$DDT_AUDIT_GENERATED_(8B)
  6
Continuous
 62
     7
100
AcDbEllipse
 10
34.8125535968
 20
389.5273698853
 30
0.0
 11
-8.500000000024331
 21
-8.978928711655954E-12
 31
0.0
210
0.0
220
0.0
230
1.0
 40
0.5
 41
0.5353637528852148
 42
0.773633186107765
  0
LINE
  5
B5
330
5E
100
AcDbEntity
  8
$DDT_AUDIT_GENERATED_(8B)
  6
Continuous
 62
     7
100
AcDbLine
 10
27.4018471089
 20
387.4458182194
 30
0.0
 11
27.4018471089
 21
388.4827596669
 31
0.0
  0
LINE
  5
B6
330
5E
100
AcDbEntity
  8
$DDT_AUDIT_GENERATED_(8B)
  6
Continuous
 62
     7
100
AcDbLine
 10
29.2109913227
 20
387.9680731688
 30
0.0
 11
27.4018471089
 21
387.4458182194
 31
0.0
  0
LINE
  5
B7
330
5E
100
AcDbEntity
  8
$DDT_AUDIT_GENERATED_(8B)
  6
Continuous
 62
     7
100
AcDbLine
 10
29.3026668142
 20
387.8790675498
 30
0.0
 11
27.5018471089
 21
387.359215679
 31
0.0
  0
ELLIPSE
  5
B8
330
5E
100
AcDbEntity
  8
$DDT_AUDIT_GENERATED_(8B)
  6
Continuous
 62
     7
100
AcDbEllipse
 10
34.8125531411
 20
389.5273698243
 30
0.0
 11
-8.499999544073455
 21
7.858864947696276E-8
 31
0.0
210
0.0
220
0.0
230
1.0
 40
0.500000012
 41
0.2500344217451295
 42
0.2735643769742283
  0
ELLIPSE
  5
B9
330
5E
100
AcDbEntity
  8
$DDT_AUDIT_GENERATED_(8B)
  6
Continuous
 62
     7
100
AcDbEllipse
 10
34.8125535968
 20
389.5273698853
 30
0.0
 11
-8.500000000025288
 21
-7.063793994177558E-12
 31
0.0
210
0.0
220
0.0
230
1.0
 40
0.5
 41
0.2735643650864419
 42
0.5118337983090292
  0
LINE
  5
BA
330
5E
100
AcDbEntity
  8
$DDT_AUDIT_GENERATED_(8B)
  6
Continuous
 62
     7
100
AcDbLine
 10
26.5768703801
 20
388.4757613608
 30
0.0
 11
26.5768703801
 21
389.4773698853
 31
0.0
  0
LINE
  5
BB
330
5E
100
AcDbEntity
  8
$DDT_AUDIT_GENERATED_(8B)
  6
Continuous
 62
     7
100
AcDbLine
 10
28.6776461686
 20
388.7572119488
 30
0.0
 11
26.5768703801
 21
388.4757613608
 31
0.0
  0
LINE
  5
BC
330
5E
100
AcDbEntity
  8
$DDT_AUDIT_GENERATED_(8B)
  6
Continuous
 62
     7
100
AcDbLine
 10
28.7190512274
 20
388.6592315568
 30
0.0
 11
26.6286341891
 21
388.3791687782
 31
0.0
  0
ARC
  5
BD
330
5E
100
AcDbEntity
  8
$DDT_AUDIT_GENERATED_(8B)
  6
Continuous
 62
     7
100
AcDbCircle
 10
28.4379947885
 20
389.5273698853
 30
0.0
 40
2.12544113068385
100
AcDbArc
 50
178.6520194651
 51
181.3479805349
  0
ELLIPSE
  5
BE
330
5E
100
AcDbEntity
  8
$DDT_AUDIT_GENERATED_(8B)
  6
Continuous
 62
     7
100
AcDbEllipse
 10
34.8125535968
 20
389.5273698853
 30
0.0
 11
-8.500000000029925
 21
-2.581268532253489E-12
 31
0.0
210
0.0
220
0.0
230
1.0
 40
0.5
 41
0.0117649772878477
 42
0.2500344105104642
  0
ARC
  5
BF
330
5E
100
AcDbEntity
  8
$DDT_AUDIT_GENERATED_(8B)
  6
Continuous
 62
     7
100
AcDbCircle
 10
30.1256536351
 20
389.5273698853
 30
0.0
 40
1.563099884844286
100
AcDbArc
 50
178.1669260056
 51
180.0
  0
LINE
  5
C0
330
5E
100
AcDbEntity
  8
$DDT_AUDIT_GENERATED_(8B)
  6
Continuous
 62
     7
100
AcDbLine
 10
28.563353648
 20
389.5773698853
 30
0.0
 11
28.563353648
 21
390.3128401161
 31
0.0
  0
LINE
  5
C1
330
5E
100
AcDbEntity
  8
$DDT_AUDIT_GENERATED_(8B)
  6
Continuous
 62
     7
100
AcDbLine
 10
28.563353648
 20
389.5773698853
 30
0.0
 11
26.3131418524
 21
389.5773698853
 31
0.0
  0
LINE
  5
C2
330
5E
100
AcDbEntity
  8
$DDT_AUDIT_GENERATED_(8B)
  6
Continuous
 62
     7
100
AcDbLine
 10
28.5625535967
 20
389.4773698853
 30
0.0
 11
26.3131418524
 21
389.4773698853
 31
0.0
  0
ELLIPSE
  5
C3
330
5E
100
AcDbEntity
  8
$DDT_AUDIT_GENERATED_(8B)
  6
Continuous
 62
     7
100
AcDbEllipse
 10
34.8125531414
 20
389.5273699463
 30
0.0
 11
-8.499999544413965
 21
-7.853015460135282E-8
 31
0.0
210
0.0
220
0.0
230
1.0
 40
0.500000012
 41
-0.2735643769653135
 42
-0.2500344217367179
  0
ELLIPSE
  5
C4
330
5E
100
AcDbEntity
  8
$DDT_AUDIT_GENERATED_(8B)
  6
Continuous
 62
     7
100
AcDbEllipse
 10
34.8125535968
 20
389.5273698853
 30
0.0
 11
-8.500000000029756
 21
2.567390744445674E-12
 31
0.0
210
0.0
220
0.0
230
1.0
 40
0.5
 41
6.033150896669111
 42
6.271420329891606
  0
ELLIPSE
  5
C5
330
5E
100
AcDbEntity
  8
$DDT_AUDIT_GENERATED_(8B)
  6
Continuous
 62
     7
100
AcDbEllipse
 10
34.8125535755
 20
389.5273698882
 30
0.0
 11
-6.249999978709975
 21
-3.689396010919666E-9
 31
0.0
210
0.0
220
0.0
230
1.0
 40
0.5000000008
 41
-0.2778000713083602
 42
-0.2457987057613202
  0
LINE
  5
C6
330
5E
100
AcDbEntity
  8
$DDT_AUDIT_GENERATED_(8B)
  6
Continuous
 62
     7
100
AcDbLine
 10
28.8021718771
 20
390.3843721583
 30
0.0
 11
28.8021718771
 21
391.2046826103
 31
0.0
  0
LINE
  5
C7
330
5E
100
AcDbEntity
  8
$DDT_AUDIT_GENERATED_(8B)
  6
Continuous
 62
     7
100
AcDbLine
 10
28.8021718771
 20
390.3843721583
 30
0.0
 11
26.6286341891
 21
390.6755709924
 31
0.0
  0
LINE
  5
C8
330
5E
100
AcDbEntity
  8
$DDT_AUDIT_GENERATED_(8B)
  6
Continuous
 62
     7
100
AcDbLine
 10
28.750408068
 20
390.2877795757
 30
0.0
 11
26.5768703801
 21
390.5789784098
 31
0.0
  0
ELLIPSE
  5
C9
330
5E
100
AcDbEntity
  8
$DDT_AUDIT_GENERATED_(8B)
  6
Continuous
 62
     7
100
AcDbEllipse
 10
34.812553188
 20
389.5273700033
 30
0.0
 11
-8.499999587059301
 21
-1.362318452491351E-7
 31
0.0
210
0.0
220
0.0
230
1.0
 40
0.5000000069
 41
-0.5353637732481795
 42
-0.5118338180187623
  0
ELLIPSE
  5
CA
330
5E
100
AcDbEntity
  8
$DDT_AUDIT_GENERATED_(8B)
  6
Continuous
 62
     7
100
AcDbEllipse
 10
34.8125535968
 20
389.5273698853
 30
0.0
 11
-8.50000000002899
 21
7.355227538141662E-12
 31
0.0
210
0.0
220
0.0
230
1.0
 40
0.5
 41
5.771351508870681
 42
6.009620942093216
  0
ELLIPSE
  5
CB
330
5E
100
AcDbEntity
  8
$DDT_AUDIT_GENERATED_(8B)
  6
Continuous
 62
     7
100
AcDbEllipse
 10
34.8125535434
 20
389.5273699007
 30
0.0
 11
-6.249999946084271
 21
-1.775955771332605E-8
 31
0.0
210
0.0
220
0.0
230
1.0
 40
0.5000000012
 41
-0.539599461979182
 42
-0.5075980963308488
  0
LINE
  5
CC
330
5E
100
AcDbEntity
  8
$DDT_AUDIT_GENERATED_(8B)
  6
Continuous
 62
     7
100
AcDbLine
 10
29.4505876878
 20
391.1329711427
 30
0.0
 11
29.4505876878
 21
392.1376421617
 31
0.0
  0
LINE
  5
CD
330
5E
100
AcDbEntity
  8
$DDT_AUDIT_GENERATED_(8B)
  6
Continuous
 62
     7
100
AcDbLine
 10
29.4505876878
 20
391.1329711427
 30
0.0
 11
27.5018471089
 21
391.6955240916
 31
0.0
  0
LINE
  5
CE
330
5E
100
AcDbEntity
  8
$DDT_AUDIT_GENERATED_(8B)
  6
Continuous
 62
     7
100
AcDbLine
 10
29.3505876878
 20
391.0463686023
 30
0.0
 11
27.4018471089
 21
391.6089215512
 31
0.0
  0
ELLIPSE
  5
CF
330
5E
100
AcDbEntity
  8
$DDT_AUDIT_GENERATED_(8B)
  6
Continuous
 62
     7
100
AcDbEllipse
 10
34.8125535967
 20
389.5273698853
 30
0.0
 11
-8.499999999977122
 21
-9.242606680004428E-12
 31
0.0
210
0.0
220
0.0
230
1.0
 40
0.5
 41
-0.5989378887072849
 42
-0.535363752887541
  0
ELLIPSE
  5
D0
330
5E
100
AcDbEntity
  8
$DDT_AUDIT_GENERATED_(8B)
  6
Continuous
 62
     7
100
AcDbEllipse
 10
34.8125536378
 20
389.5273698648
 30
0.0
 11
-6.250000043555143
 21
1.937365545767733E-8
 31
0.0
210
0.0
220
0.0
230
1.0
 40
0.5
 41
-0.8013988421950478
 42
-0.7693974768530563
  0
LINE
  5
D1
330
5E
100
AcDbEntity
  8
$DDT_AUDIT_GENERATED_(8B)
  6
Continuous
 62
     7
100
AcDbLine
 10
30.4644126141
 20
391.7721510548
 30
0.0
 11
30.4644126141
 21
393.1219118102
 31
0.0
  0
LINE
  5
D2
330
5E
100
AcDbEntity
  8
$DDT_AUDIT_GENERATED_(8B)
  6
Continuous
 62
     7
100
AcDbLine
 10
30.4644126141
 20
391.7721510548
 30
0.0
 11
28.9094778067
 21
392.5496184585
 31
0.0
  0
LINE
  5
D3
330
5E
100
AcDbEntity
  8
$DDT_AUDIT_GENERATED_(8B)
  6
Continuous
 62
     7
100
AcDbLine
 10
30.3229912578
 20
391.7014403766
 30
0.0
 11
28.7640728818
 21
392.4808995647
 31
0.0
  0
ELLIPSE
  5
D4
330
5E
100
AcDbEntity
  8
$DDT_AUDIT_GENERATED_(8B)
  6
Continuous
 62
     7
100
AcDbEllipse
 10
34.8125535726
 20
389.5273699062
 30
0.0
 11
-6.24999996985281
 21
-1.391319004451219E-8
 31
0.0
210
0.0
220
0.0
230
1.0
 40
0.499999999
 41
-1.06319823678747
 42
-1.031196871173319
  0
LINE
  5
D5
330
5E
100
AcDbEntity
  8
$DDT_AUDIT_GENERATED_(8B)
  6
Continuous
 62
     7
100
AcDbLine
 10
31.7745561627
 20
392.2583528398
 30
0.0
 11
31.7745561627
 21
393.4303324775
 31
0.0
  0
LINE
  5
D6
330
5E
100
AcDbEntity
  8
$DDT_AUDIT_GENERATED_(8B)
  6
Continuous
 62
     7
100
AcDbLine
 10
31.7745561627
 20
392.2583528398
 30
0.0
 11
30.701301523
 21
393.1878186226
 31
0.0
  0
LINE
  5
D7
330
5E
100
AcDbEntity
  8
$DDT_AUDIT_GENERATED_(8B)
  6
Continuous
 62
     7
100
AcDbLine
 10
31.601351082
 20
392.2083528398
 30
0.0
 11
30.5261050529
 21
393.1395432163
 31
0.0
  0
ELLIPSE
  5
D8
330
5E
100
AcDbEntity
  8
$DDT_AUDIT_GENERATED_(8B)
  6
Continuous
 62
     7
100
AcDbEllipse
 10
34.8125536116
 20
389.5273698575
 30
0.0
 11
-6.250000030664196
 21
9.586040294884413E-9
 31
0.0
210
0.0
220
0.0
230
1.0
 40
0.500000002
 41
-1.324997619749948
 42
-1.292996254406482
  0
LINE
  5
D9
330
5E
100
AcDbEntity
  8
$DDT_AUDIT_GENERATED_(8B)
  6
Continuous
 62
     7
100
AcDbLine
 10
33.291734216
 20
392.5584426497
 30
0.0
 11
33.291734216
 21
393.6371867637
 31
0.0
  0
LINE
  5
DA
330
5E
100
AcDbEntity
  8
$DDT_AUDIT_GENERATED_(8B)
  6
Continuous
 62
     7
100
AcDbLine
 10
33.291734216
 20
392.5584426497
 30
0.0
 11
32.7445581322
 21
393.5794871224
 31
0.0
  0
LINE
  5
DB
330
5E
100
AcDbEntity
  8
$DDT_AUDIT_GENERATED_(8B)
  6
Continuous
 62
     7
100
AcDbLine
 10
33.0985490507
 20
392.5325607452
 30
0.0
 11
32.5508394532
 21
393.554600768
 31
0.0
  0
ARC
  5
DC
330
5E
100
AcDbEntity
  8
$DDT_AUDIT_GENERATED_(8B)
  6
Continuous
 62
     7
100
AcDbCircle
 10
34.8125535967
 20
380.1535699621
 30
0.0
 40
12.49879994239107
100
AcDbArc
 50
89.5415848636
 51
90.4584151364
  0
LINE
  5
DD
330
5E
100
AcDbEntity
  8
$DDT_AUDIT_GENERATED_(8B)
  6
Continuous
 62
     7
100
AcDbLine
 10
34.9125535967
 20
392.6519698597
 30
0.0
 11
34.9125535967
 21
393.7038774387
 31
0.0
  0
LINE
  5
DE
330
5E
100
AcDbEntity
  8
$DDT_AUDIT_GENERATED_(8B)
  6
Continuous
 62
     7
100
AcDbLine
 10
34.7125535967
 20
392.6519698597
 30
0.0
 11
34.7125535967
 21
393.7038774387
 31
0.0
  0
ELLIPSE
  5
DF
330
5E
100
AcDbEntity
  8
$DDT_AUDIT_GENERATED_(8B)
  6
Continuous
 62
     7
100
AcDbEllipse
 10
34.8125535819
 20
389.5273698575
 30
0.0
 11
6.250000030698119
 21
9.580461424185671E-9
 31
0.0
210
0.0
220
0.0
230
1.0
 40
0.500000002
 41
1.292996254407385
 42
1.324997619750695
  0
LINE
  5
E0
330
5E
100
AcDbEntity
  8
$DDT_AUDIT_GENERATED_(8B)
  6
Continuous
 62
     7
100
AcDbLine
 10
36.5265581428
 20
392.5325607452
 30
0.0
 11
37.0742677403
 21
393.554600768
 31
0.0
  0
LINE
  5
E1
330
5E
100
AcDbEntity
  8
$DDT_AUDIT_GENERATED_(8B)
  6
Continuous
 62
     7
100
AcDbLine
 10
36.3333729775
 20
392.5584426497
 30
0.0
 11
36.8805490613
 21
393.5794871224
 31
0.0
  0
LINE
  5
E2
330
5E
100
AcDbEntity
  8
$DDT_AUDIT_GENERATED_(8B)
  6
Continuous
 62
     7
100
AcDbLine
 10
36.3333729775
 20
392.5584426497
 30
0.0
 11
36.3333729775
 21
393.6371867637
 31
0.0
  0
ELLIPSE
  5
E3
330
5E
100
AcDbEntity
  8
$DDT_AUDIT_GENERATED_(8B)
  6
Continuous
 62
     7
100
AcDbEllipse
 10
34.8125535612
 20
389.5273698544
 30
0.0
 11
6.250000044518121
 21
2.055945691470384E-8
 31
0.0
210
0.0
220
0.0
230
1.0
 40
0.5000000014
 41
1.031196864435642
 42
1.063198229743821
  0
LINE
  5
E4
330
5E
100
AcDbEntity
  8
$DDT_AUDIT_GENERATED_(8B)
  6
Continuous
 62
     7
100
AcDbLine
 10
38.0237561115
 20
392.2083528398
 30
0.0
 11
39.0990021406
 21
393.1395432163
 31
0.0
  0
LINE
  5
E5
330
5E
100
AcDbEntity
  8
$DDT_AUDIT_GENERATED_(8B)
  6
Continuous
 62
     7
100
AcDbLine
 10
37.8505510308
 20
392.2583528398
 30
0.0
 11
38.9238056705
 21
393.1878186226
 31
0.0
  0
LINE
  5
E6
330
5E
100
AcDbEntity
  8
$DDT_AUDIT_GENERATED_(8B)
  6
Continuous
 62
     7
100
AcDbLine
 10
37.8505510308
 20
392.2583528398
 30
0.0
 11
37.8505510308
 21
393.4303324775
 31
0.0
  0
ELLIPSE
  5
E7
330
5E
100
AcDbEntity
  8
$DDT_AUDIT_GENERATED_(8B)
  6
Continuous
 62
     7
100
AcDbEllipse
 10
34.8125535561
 20
389.527369865
 30
0.0
 11
6.250000043157264
 21
1.919422953911010E-8
 31
0.0
210
0.0
220
0.0
230
1.0
 40
0.5
 41
0.7693974768885142
 42
0.8013988422318263
  0
LINE
  5
E8
330
5E
100
AcDbEntity
  8
$DDT_AUDIT_GENERATED_(8B)
  6
Continuous
 62
     7
100
AcDbLine
 10
39.3021159356
 20
391.7014403766
 30
0.0
 11
40.8610343117
 21
392.4808995647
 31
0.0
  0
LINE
  5
E9
330
5E
100
AcDbEntity
  8
$DDT_AUDIT_GENERATED_(8B)
  6
Continuous
 62
     7
100
AcDbLine
 10
39.1606945794
 20
391.7721510548
 30
0.0
 11
40.7156293868
 21
392.5496184585
 31
0.0
  0
LINE
  5
EA
330
5E
100
AcDbEntity
  8
$DDT_AUDIT_GENERATED_(8B)
  6
Continuous
 62
     7
100
AcDbLine
 10
39.1606945794
 20
391.7721510548
 30
0.0
 11
39.1606945794
 21
393.1219118102
 31
0.0
  0
ELLIPSE
  5
EB
330
5E
100
AcDbEntity
  8
$DDT_AUDIT_GENERATED_(8B)
  6
Continuous
 62
     7
100
AcDbEllipse
 10
34.8125539466
 20
389.5273699864
 30
0.0
 11
8.499999646550082
 21
-1.166583774026009E-7
 31
0.0
210
0.0
220
0.0
230
1.0
 40
0.5000000059
 41
0.5118338151795762
 42
0.5353637703149815
  0
ELLIPSE
  5
EC
330
5E
100
AcDbEntity
  8
$DDT_AUDIT_GENERATED_(8B)
  6
Continuous
 62
     7
100
AcDbEllipse
 10
34.8125535967
 20
389.5273698853
 30
0.0
 11
8.500000000024329
 21
9.589551375199790E-12
 31
0.0
210
0.0
220
0.0
230
1.0
 40
0.5
 41
0.535363752885176
 42
0.5989378887047162
  0
ELLIPSE
  5
ED
330
5E
100
AcDbEntity
  8
$DDT_AUDIT_GENERATED_(8B)
  6
Continuous
 62
     7
100
AcDbEllipse
 10
34.8125535465
 20
389.5273698708
 30
0.0
 11
6.250000050806139
 21
1.676406236050809E-8
 31
0.0
210
0.0
220
0.0
230
1.0
 40
0.4999999988
 41
0.5075980895746321
 42
0.5395994549165922
  0
LINE
  5
EE
330
5E
100
AcDbEntity
  8
$DDT_AUDIT_GENERATED_(8B)
  6
Continuous
 62
     7
100
AcDbLine
 10
40.2745195057
 20
391.0463686023
 30
0.0
 11
42.2232600846
 21
391.6089215512
 31
0.0
  0
LINE
  5
EF
330
5E
100
AcDbEntity
  8
$DDT_AUDIT_GENERATED_(8B)
  6
Continuous
 62
     7
100
AcDbLine
 10
40.1745195057
 20
391.1329711427
 30
0.0
 11
42.1232600846
 21
391.6955240916
 31
0.0
  0
LINE
  5
F0
330
5E
100
AcDbEntity
  8
$DDT_AUDIT_GENERATED_(8B)
  6
Continuous
 62
     7
100
AcDbLine
 10
40.1745195057
 20
391.1329711427
 30
0.0
 11
40.1745195057
 21
392.1376421617
 31
0.0
  0
ELLIPSE
  5
F1
330
5E
100
AcDbEntity
  8
$DDT_AUDIT_GENERATED_(8B)
  6
Continuous
 62
     7
100
AcDbEllipse
 10
34.8125539866
 20
389.5273699377
 30
0.0
 11
8.499999609905929
 21
-6.742861824449164E-8
 31
0.0
210
0.0
220
0.0
230
1.0
 40
0.5000000103
 41
0.2500344201332426
 42
0.2735643752681182
  0
ELLIPSE
  5
F2
330
5E
100
AcDbEntity
  8
$DDT_AUDIT_GENERATED_(8B)
  6
Continuous
 62
     7
100
AcDbEllipse
 10
34.8125535967
 20
389.5273698853
 30
0.0
 11
8.500000000035072
 21
8.895661984809067E-12
 31
0.0
210
0.0
220
0.0
230
1.0
 40
0.5
 41
0.2735643650861846
 42
0.5118337983086337
  0
ELLIPSE
  5
F3
330
5E
100
AcDbEntity
  8
$DDT_AUDIT_GENERATED_(8B)
  6
Continuous
 62
     7
100
AcDbEllipse
 10
34.812553618
 20
389.5273698882
 30
0.0
 11
6.249999978698111
 21
-3.691477679090838E-9
 31
0.0
210
0.0
220
0.0
230
1.0
 40
0.5000000008
 41
0.2457987057617554
 42
0.2778000713088319
  0
LINE
  5
F4
330
5E
100
AcDbEntity
  8
$DDT_AUDIT_GENERATED_(8B)
  6
Continuous
 62
     7
100
AcDbLine
 10
40.8746991254
 20
390.2877795757
 30
0.0
 11
43.0482368134
 21
390.5789784098
 31
0.0
  0
LINE
  5
F5
330
5E
100
AcDbEntity
  8
$DDT_AUDIT_GENERATED_(8B)
  6
Continuous
 62
     7
100
AcDbLine
 10
40.8229353164
 20
390.3843721583
 30
0.0
 11
42.9964730044
 21
390.6755709924
 31
0.0
  0
LINE
  5
F6
330
5E
100
AcDbEntity
  8
$DDT_AUDIT_GENERATED_(8B)
  6
Continuous
 62
     7
100
AcDbLine
 10
40.8229353164
 20
390.3843721583
 30
0.0
 11
40.8229353164
 21
391.2046826103
 31
0.0
  0
ARC
  5
F7
330
5E
100
AcDbEntity
  8
$DDT_AUDIT_GENERATED_(8B)
  6
Continuous
 62
     7
100
AcDbCircle
 10
41.187112405
 20
389.5273698853
 30
0.0
 40
2.125441130684827
100
AcDbArc
 50
358.6520194651
 51
1.3479805349
  0
ELLIPSE
  5
F8
330
5E
100
AcDbEntity
  8
$DDT_AUDIT_GENERATED_(8B)
  6
Continuous
 62
     7
100
AcDbEllipse
 10
34.8125535967
 20
389.5273698853
 30
0.0
 11
8.500000000031118
 21
3.316791286067655E-12
 31
0.0
210
0.0
220
0.0
230
1.0
 40
0.5
 41
0.0117649772878289
 42
0.2500344105104058
  0
ARC
  5
F9
330
5E
100
AcDbEntity
  8
$DDT_AUDIT_GENERATED_(8B)
  6
Continuous
 62
     7
100
AcDbCircle
 10
39.4994535583
 20
389.5273698853
 30
0.0
 40
1.563099884843874
100
AcDbArc
 50
0.0
 51
1.8330739944
  0
LINE
  5
FA
330
5E
100
AcDbEntity
  8
$DDT_AUDIT_GENERATED_(8B)
  6
Continuous
 62
     7
100
AcDbLine
 10
41.0625535967
 20
389.4773698853
 30
0.0
 11
43.3119653411
 21
389.4773698853
 31
0.0
  0
LINE
  5
FB
330
5E
100
AcDbEntity
  8
$DDT_AUDIT_GENERATED_(8B)
  6
Continuous
 62
     7
100
AcDbLine
 10
41.0617535455
 20
389.5773698853
 30
0.0
 11
43.3119653411
 21
389.5773698853
 31
0.0
  0
LINE
  5
FC
330
5E
100
AcDbEntity
  8
$DDT_AUDIT_GENERATED_(8B)
  6
Continuous
 62
     7
100
AcDbLine
 10
41.0617535455
 20
389.5773698853
 30
0.0
 11
41.0617535455
 21
390.3128401161
 31
0.0
  0
ELLIPSE
  5
FD
330
5E
100
AcDbEntity
  8
$DDT_AUDIT_GENERATED_(8B)
  6
Continuous
 62
     7
100
AcDbEllipse
 10
34.8125540529
 20
389.5273698242
 30
0.0
 11
8.499999543531741
 21
7.868244944475578E-8
 31
0.0
210
0.0
220
0.0
230
1.0
 40
0.500000012
 41
-0.273564376988344
 42
-0.2500344217584862
  0
ELLIPSE
  5
FE
330
5E
100
AcDbEntity
  8
$DDT_AUDIT_GENERATED_(8B)
  6
Continuous
 62
     7
100
AcDbEllipse
 10
34.8125535967
 20
389.5273698853
 30
0.0
 11
8.500000000029125
 21
-1.873501354054952E-12
 31
0.0
210
0.0
220
0.0
230
1.0
 40
0.5
 41
6.033150896669079
 42
6.27142032989171
  0
LINE
  5
FF
330
5E
100
AcDbEntity
  8
$DDT_AUDIT_GENERATED_(8B)
  6
Continuous
 62
     7
100
AcDbLine
 10
43.0482368134
 20
388.4757613608
 30
0.0
 11
43.0482368134
 21
389.4773698853
 31
0.0
  0
LINE
  5
100
330
5E
100
AcDbEntity
  8
$DDT_AUDIT_GENERATED_(8B)
  6
Continuous
 62
     7
100
AcDbLine
 10
40.9060559661
 20
388.6592315568
 30
0.0
 11
42.9964730044
 21
388.3791687782
 31
0.0
  0
LINE
  5
101
330
5E
100
AcDbEntity
  8
$DDT_AUDIT_GENERATED_(8B)
  6
Continuous
 62
     7
100
AcDbLine
 10
40.9474610249
 20
388.7572119488
 30
0.0
 11
43.0482368134
 21
388.4757613608
 31
0.0
  0
ELLIPSE
  5
102
330
5E
100
AcDbEntity
  8
$DDT_AUDIT_GENERATED_(8B)
  6
Continuous
 62
     7
100
AcDbEllipse
 10
34.8125539467
 20
389.5273697844
 30
0.0
 11
8.49999964646746
 21
1.165790658452792E-7
 31
0.0
210
0.0
220
0.0
230
1.0
 40
0.5000000059
 41
-0.5353637703188561
 42
-0.5118338151835928
  0
ELLIPSE
  5
103
330
5E
100
AcDbEntity
  8
$DDT_AUDIT_GENERATED_(8B)
  6
Continuous
 62
     7
100
AcDbEllipse
 10
34.8125535967
 20
389.5273698853
 30
0.0
 11
8.500000000028933
 21
-7.341349750333848E-12
 31
0.0
210
0.0
220
0.0
230
1.0
 40
0.5
 41
5.771351508870679
 42
6.009620942093213
  0
LINE
  5
104
330
5E
100
AcDbEntity
  8
$DDT_AUDIT_GENERATED_(8B)
  6
Continuous
 62
     7
100
AcDbLine
 10
42.2232600846
 20
387.4458182194
 30
0.0
 11
42.2232600846
 21
388.4827596669
 31
0.0
  0
LINE
  5
105
330
5E
100
AcDbEntity
  8
$DDT_AUDIT_GENERATED_(8B)
  6
Continuous
 62
     7
100
AcDbLine
 10
40.3224403793
 20
387.8790675498
 30
0.0
 11
42.1232600846
 21
387.359215679
 31
0.0
  0
LINE
  5
106
330
5E
100
AcDbEntity
  8
$DDT_AUDIT_GENERATED_(8B)
  6
Continuous
 62
     7
100
AcDbLine
 10
40.4141158708
 20
387.9680731688
 30
0.0
 11
42.2232600846
 21
387.4458182194
 31
0.0
  0
ELLIPSE
  5
107
330
5E
100
AcDbEntity
  8
$DDT_AUDIT_GENERATED_(8B)
  6
Continuous
 62
     7
100
AcDbEllipse
 10
34.8125539059
 20
389.5273697308
 30
0.0
 11
8.499999672115072
 21
1.456960802004303E-7
 31
0.0
210
0.0
220
0.0
230
1.0
 40
0.5
 41
-0.7971631624216053
 42
-0.7736332072403904
  0
ELLIPSE
  5
108
330
5E
100
AcDbEntity
  8
$DDT_AUDIT_GENERATED_(8B)
  6
Continuous
 62
     7
100
AcDbEllipse
 10
34.8125535967
 20
389.5273698853
 30
0.0
 11
8.500000000016412
 21
-6.439293542825908E-12
 31
0.0
210
0.0
220
0.0
230
1.0
 40
0.5
 41
-0.7736331861082553
 42
-0.5353637528855693
  0
LINE
  5
109
330
5E
100
AcDbEntity
  8
$DDT_AUDIT_GENERATED_(8B)
  6
Continuous
 62
     7
100
AcDbLine
 10
40.8932559554
 20
386.5577293841
 30
0.0
 11
40.8932559554
 21
387.7142872866
 31
0.0
  0
LINE
  5
10A
330
5E
100
AcDbEntity
  8
$DDT_AUDIT_GENERATED_(8B)
  6
Continuous
 62
     7
100
AcDbLine
 10
39.3332767053
 20
387.1962976529
 30
0.0
 11
40.7518345992
 21
386.487018706
 31
0.0
  0
LINE
  5
10B
330
5E
100
AcDbEntity
  8
$DDT_AUDIT_GENERATED_(8B)
  6
Continuous
 62
     7
100
AcDbLine
 10
39.469150525
 20
387.2697820993
 30
0.0
 11
40.8932559554
 21
386.5577293841
 31
0.0
  0
ELLIPSE
  5
10C
330
5E
100
AcDbEntity
  8
$DDT_AUDIT_GENERATED_(8B)
  6
Continuous
 62
     7
100
AcDbEllipse
 10
34.8125538157
 20
389.5273696957
 30
0.0
 11
8.499999726313451
 21
1.264599536199285E-7
 31
0.0
210
0.0
220
0.0
230
1.0
 40
0.4999999936
 41
-1.058962547387591
 42
-1.035432592205401
  0
ELLIPSE
  5
10D
330
5E
100
AcDbEntity
  8
$DDT_AUDIT_GENERATED_(8B)
  6
Continuous
 62
     7
100
AcDbEllipse
 10
34.8125535967
 20
389.5273698853
 30
0.0
 11
8.499999999997323
 21
8.187894806610529E-13
 31
0.0
210
0.0
220
0.0
230
1.0
 40
0.5
 41
-1.035432573908697
 42
-0.7971631406856732
  0
LINE
  5
10E
330
5E
100
AcDbEntity
  8
$DDT_AUDIT_GENERATED_(8B)
  6
Continuous
 62
     7
100
AcDbLine
 10
39.1488620093
 20
385.8720166414
 30
0.0
 11
39.1488620093
 21
387.1036687842
 31
0.0
  0
LINE
  5
10F
330
5E
100
AcDbEntity
  8
$DDT_AUDIT_GENERATED_(8B)
  6
Continuous
 62
     7
100
AcDbLine
 10
38.0007366897
 20
386.6663223349
 30
0.0
 11
38.9756569285
 21
385.8220166414
 31
0.0
  0
LINE
  5
110
330
5E
100
AcDbEntity
  8
$DDT_AUDIT_GENERATED_(8B)
  6
Continuous
 62
     7
100
AcDbLine
 10
38.1711690689
 20
386.7187235649
 30
0.0
 11
39.1488620093
 21
385.8720166414
 31
0.0
  0
ELLIPSE
  5
111
330
5E
100
AcDbEntity
  8
$DDT_AUDIT_GENERATED_(8B)
  6
Continuous
 62
     7
100
AcDbEllipse
 10
34.8125537143
 20
389.5273696661
 30
0.0
 11
8.499999757774566
 21
7.568343174391146E-8
 31
0.0
210
0.0
220
0.0
230
1.0
 40
0.4999999884
 41
-1.320761927732521
 42
-1.297231972527888
  0
ELLIPSE
  5
112
330
5E
100
AcDbEntity
  8
$DDT_AUDIT_GENERATED_(8B)
  6
Continuous
 62
     7
100
AcDbEllipse
 10
34.8125535967
 20
389.5273698853
 30
0.0
 11
8.500000000004199
 21
-1.817990202823694E-12
 31
0.0
210
0.0
220
0.0
230
1.0
 40
0.5
 41
4.985953345472244
 42
5.224222778695113
  0
LINE
  5
113
330
5E
100
AcDbEntity
  8
$DDT_AUDIT_GENERATED_(8B)
  6
Continuous
 62
     7
100
AcDbLine
 10
37.108955811
 20
385.4354101815
 30
0.0
 11
37.108955811
 21
386.4477479009
 31
0.0
  0
LINE
  5
114
330
5E
100
AcDbEntity
  8
$DDT_AUDIT_GENERATED_(8B)
  6
Continuous
 62
     7
100
AcDbLine
 10
36.4201803716
 20
386.3343123184
 30
0.0
 11
36.9157706457
 21
385.409528277
 31
0.0
  0
LINE
  5
115
330
5E
100
AcDbEntity
  8
$DDT_AUDIT_GENERATED_(8B)
  6
Continuous
 62
     7
100
AcDbLine
 10
36.6126228027
 20
386.3615801836
 30
0.0
 11
37.108955811
 21
385.4354101815
 31
0.0
  0
ARC
  5
116
330
5E
100
AcDbEntity
  8
$DDT_AUDIT_GENERATED_(8B)
  6
Continuous
 62
     7
100
AcDbCircle
 10
34.8125535967
 20
397.3979936694
 30
0.0
 40
10.49562408816834
100
AcDbArc
 50
269.0446279347
 51
270.9553720653
  0
LINE
  5
117
330
5E
100
AcDbEntity
  8
$DDT_AUDIT_GENERATED_(8B)
  6
Continuous
 62
     7
100
AcDbLine
 10
34.6375535967
 20
387.9819517198
 30
0.0
 11
34.6375535967
 21
386.903828624
 31
0.0
  0
LINE
  5
118
330
5E
100
AcDbEntity
  8
$DDT_AUDIT_GENERATED_(8B)
  6
Continuous
 62
     7
100
AcDbLine
 10
34.9875535967
 20
387.9819517198
 30
0.0
 11
34.9875535967
 21
386.903828624
 31
0.0
  0
ELLIPSE
  5
119
330
5E
100
AcDbEntity
  8
$DDT_AUDIT_GENERATED_(8B)
  6
Continuous
 62
     7
100
AcDbEllipse
 10
34.8125535957
 20
389.5273698844
 30
0.0
 11
-5.249999998646696
 21
6.310507671969390E-10
 31
0.0
210
0.0
220
0.0
230
1.0
 40
0.4999999999
 41
1.013858042078127
 42
1.080537060614474
  0
LINE
  5
11A
330
5E
100
AcDbEntity
  8
$DDT_AUDIT_GENERATED_(8B)
  6
Continuous
 62
     7
100
AcDbLine
 10
33.1470661229
 20
388.2600154233
 30
0.0
 11
32.0374578897
 21
387.2990665051
 31
0.0
  0
LINE
  5
11B
330
5E
100
AcDbEntity
  8
$DDT_AUDIT_GENERATED_(8B)
  6
Continuous
 62
     7
100
AcDbLine
 10
33.4391083353
 20
388.1629313982
 30
0.0
 11
32.3405667811
 21
387.2115665051
 31
0.0
  0
LINE
  5
11C
330
5E
100
AcDbEntity
  8
$DDT_AUDIT_GENERATED_(8B)
  6
Continuous
 62
     7
100
AcDbLine
 10
32.0374578897
 20
388.6252324615
 30
0.0
 11
32.0374578897
 21
387.2990665051
 31
0.0
  0
ELLIPSE
  5
11D
330
5E
100
AcDbEntity
  8
$DDT_AUDIT_GENERATED_(8B)
  6
Continuous
 62
     7
100
AcDbEllipse
 10
34.8125535936
 20
389.5273698844
 30
0.0
 11
-5.249999996874555
 21
1.032632312991666E-9
 31
0.0
210
0.0
220
0.0
230
1.0
 40
0.5000000001
 41
0.4902592665714328
 42
0.5569382851167195
  0
LINE
  5
11E
330
5E
100
AcDbEntity
  8
$DDT_AUDIT_GENERATED_(8B)
  6
Continuous
 62
     7
100
AcDbLine
 10
32.2292794708
 20
388.8826791764
 30
0.0
 11
30.1809468363
 21
388.2913764775
 31
0.0
  0
LINE
  5
11F
330
5E
100
AcDbEntity
  8
$DDT_AUDIT_GENERATED_(8B)
  6
Continuous
 62
     7
100
AcDbLine
 10
32.3709453079
 20
388.7215019868
 30
0.0
 11
30.3559468363
 21
388.1398220318
 31
0.0
  0
LINE
  5
120
330
5E
100
AcDbEntity
  8
$DDT_AUDIT_GENERATED_(8B)
  6
Continuous
 62
     7
100
AcDbLine
 10
30.1809468363
 20
389.4398698853
 30
0.0
 11
30.1809468363
 21
388.2913764775
 31
0.0
  0
LINE
  5
121
330
5E
100
AcDbEntity
  8
$DDT_AUDIT_GENERATED_(8B)
  6
Continuous
 62
     7
100
AcDbLine
 10
32.0681274272
 20
390.2185811821
 30
0.0
 11
32.0681274272
 21
389.6148698853
 31
0.0
  0
ELLIPSE
  5
122
330
5E
100
AcDbEntity
  8
$DDT_AUDIT_GENERATED_(8B)
  6
Continuous
 62
     7
100
AcDbEllipse
 10
34.8125535967
 20
389.5273698853
 30
0.0
 11
2.749999999998212
 21
0.0
 31
0.0
210
0.0
220
0.0
230
1.0
 40
0.5
 41
3.077913261332764
 42
3.141592653589793
  0
LINE
  5
123
330
5E
100
AcDbEntity
  8
$DDT_AUDIT_GENERATED_(8B)
  6
Continuous
 62
     7
100
AcDbLine
 10
32.0681274272
 20
389.6148698853
 30
0.0
 11
29.5885100055
 21
389.6148698853
 31
0.0
  0
LINE
  5
124
330
5E
100
AcDbEntity
  8
$DDT_AUDIT_GENERATED_(8B)
  6
Continuous
 62
     7
100
AcDbLine
 10
32.0625535967
 20
389.4398698853
 30
0.0
 11
29.565471074
 21
389.4398698853
 31
0.0
  0
LINE
  5
125
330
5E
100
AcDbEntity
  8
$DDT_AUDIT_GENERATED_(8B)
  6
Continuous
 62
     7
100
AcDbLine
 10
32.5233108151
 20
391.3349122896
 30
0.0
 11
32.5233108151
 21
390.2892536505
 31
0.0
  0
ELLIPSE
  5
126
330
5E
100
AcDbEntity
  8
$DDT_AUDIT_GENERATED_(8B)
  6
Continuous
 62
     7
100
AcDbEllipse
 10
34.8125535967
 20
389.5273698853
 30
0.0
 11
-2.749999999991146
 21
-2.747801985947263E-12
 31
0.0
210
0.0
220
0.0
230
1.0
 40
0.5
 41
-0.5872781678567227
 42
-0.4599193833424673
  0
LINE
  5
127
330
5E
100
AcDbEntity
  8
$DDT_AUDIT_GENERATED_(8B)
  6
Continuous
 62
     7
100
AcDbLine
 10
32.5233108151
 20
390.2892536505
 30
0.0
 11
30.5220677034
 21
390.8669627752
 31
0.0
  0
LINE
  5
128
330
5E
100
AcDbEntity
  8
$DDT_AUDIT_GENERATED_(8B)
  6
Continuous
 62
     7
100
AcDbLine
 10
32.3483108151
 20
390.1376992049
 30
0.0
 11
30.3297091378
 21
390.7204193157
 31
0.0
  0
LINE
  5
129
330
5E
100
AcDbEntity
  8
$DDT_AUDIT_GENERATED_(8B)
  6
Continuous
 62
     7
100
AcDbLine
 10
33.5918949576
 20
391.9072263239
 30
0.0
 11
33.5918949576
 21
390.7594912761
 31
0.0
  0
ELLIPSE
  5
12A
330
5E
100
AcDbEntity
  8
$DDT_AUDIT_GENERATED_(8B)
  6
Continuous
 62
     7
100
AcDbEllipse
 10
34.8125535968
 20
389.5273698853
 30
0.0
 11
-2.750000000008232
 21
4.246603069191224E-12
 31
0.0
210
0.0
220
0.0
230
1.0
 40
0.5
 41
-1.110876943451674
 42
-0.9835181589379456
  0
LINE
  5
12B
330
5E
100
AcDbEntity
  8
$DDT_AUDIT_GENERATED_(8B)
  6
Continuous
 62
     7
100
AcDbLine
 10
33.5918949576
 20
390.7594912761
 30
0.0
 11
32.4948880621
 21
391.7095271158
 31
0.0
  0
LINE
  5
12C
330
5E
100
AcDbEntity
  8
$DDT_AUDIT_GENERATED_(8B)
  6
Continuous
 62
     7
100
AcDbLine
 10
33.2887860663
 20
390.6719912761
 30
0.0
 11
32.1859993045
 21
391.6270326268
 31
0.0
  0
ARC
  5
12D
330
5E
100
AcDbEntity
  8
$DDT_AUDIT_GENERATED_(8B)
  6
Continuous
 62
     7
100
AcDbCircle
 10
34.8125535967
 20
385.410730631
 30
0.0
 40
5.491641375762391
100
AcDbArc
 50
88.1738685209
 51
91.8261314791
  0
LINE
  5
12E
330
5E
100
AcDbEntity
  8
$DDT_AUDIT_GENERATED_(8B)
  6
Continuous
 62
     7
100
AcDbLine
 10
34.9875535967
 20
390.8995829701
 30
0.0
 11
34.9875535967
 21
391.9777060659
 31
0.0
  0
LINE
  5
12F
330
5E
100
AcDbEntity
  8
$DDT_AUDIT_GENERATED_(8B)
  6
Continuous
 62
     7
100
AcDbLine
 10
34.6375535967
 20
390.8995829701
 30
0.0
 11
34.6375535967
 21
391.9777060659
 31
0.0
  0
ELLIPSE
  5
130
330
5E
100
AcDbEntity
  8
$DDT_AUDIT_GENERATED_(8B)
  6
Continuous
 62
     7
100
AcDbEllipse
 10
34.8125535967
 20
389.5273698853
 30
0.0
 11
2.750000000044867
 21
2.135791543622645E-11
 31
0.0
210
0.0
220
0.0
230
1.0
 40
0.5
 41
0.9835181589308108
 42
1.110876943443187
  0
LINE
  5
131
330
5E
100
AcDbEntity
  8
$DDT_AUDIT_GENERATED_(8B)
  6
Continuous
 62
     7
100
AcDbLine
 10
36.0332122358
 20
391.9072263239
 30
0.0
 11
36.0332122358
 21
390.7594912761
 31
0.0
  0
LINE
  5
132
330
5E
100
AcDbEntity
  8
$DDT_AUDIT_GENERATED_(8B)
  6
Continuous
 62
     7
100
AcDbLine
 10
36.3363211272
 20
390.6719912761
 30
0.0
 11
37.439107889
 21
391.6270326268
 31
0.0
  0
LINE
  5
133
330
5E
100
AcDbEntity
  8
$DDT_AUDIT_GENERATED_(8B)
  6
Continuous
 62
     7
100
AcDbLine
 10
36.0332122358
 20
390.7594912761
 30
0.0
 11
37.1302191314
 21
391.7095271158
 31
0.0
  0
ELLIPSE
  5
134
330
5E
100
AcDbEntity
  8
$DDT_AUDIT_GENERATED_(8B)
  6
Continuous
 62
     7
100
AcDbEllipse
 10
34.8125535967
 20
389.5273698853
 30
0.0
 11
2.750000000016989
 21
5.759281940243000E-12
 31
0.0
210
0.0
220
0.0
230
1.0
 40
0.5
 41
0.459919383338919
 42
0.5872781678525122
  0
LINE
  5
135
330
5E
100
AcDbEntity
  8
$DDT_AUDIT_GENERATED_(8B)
  6
Continuous
 62
     7
100
AcDbLine
 10
37.1017963784
 20
391.3349122896
 30
0.0
 11
37.1017963784
 21
390.2892536505
 31
0.0
  0
LINE
  5
136
330
5E
100
AcDbEntity
  8
$DDT_AUDIT_GENERATED_(8B)
  6
Continuous
 62
     7
100
AcDbLine
 10
37.2767963784
 20
390.1376992049
 30
0.0
 11
39.2953980556
 21
390.7204193157
 31
0.0
  0
LINE
  5
137
330
5E
100
AcDbEntity
  8
$DDT_AUDIT_GENERATED_(8B)
  6
Continuous
 62
     7
100
AcDbLine
 10
37.1017963784
 20
390.2892536505
 30
0.0
 11
39.1030394901
 21
390.8669627752
 31
0.0
  0
ELLIPSE
  5
138
330
5E
100
AcDbEntity
  8
$DDT_AUDIT_GENERATED_(8B)
  6
Continuous
 62
     7
100
AcDbEllipse
 10
34.8125535967
 20
389.5273698853
 30
0.0
 11
-2.750000000000099
 21
-2.275957200481571E-12
 31
0.0
210
0.0
220
0.0
230
1.0
 40
0.5
 41
3.141592653589792
 42
3.20527204584637
  0
LINE
  5
139
330
5E
100
AcDbEntity
  8
$DDT_AUDIT_GENERATED_(8B)
  6
Continuous
 62
     7
100
AcDbLine
 10
37.5569797663
 20
390.2185811821
 30
0.0
 11
37.5569797663
 21
389.6148698853
 31
0.0
  0
LINE
  5
13A
330
5E
100
AcDbEntity
  8
$DDT_AUDIT_GENERATED_(8B)
  6
Continuous
 62
     7
100
AcDbLine
 10
37.5625535967
 20
389.4398698853
 30
0.0
 11
40.0596361194
 21
389.4398698853
 31
0.0
  0
LINE
  5
13B
330
5E
100
AcDbEntity
  8
$DDT_AUDIT_GENERATED_(8B)
  6
Continuous
 62
     7
100
AcDbLine
 10
37.5569797663
 20
389.6148698853
 30
0.0
 11
40.036597188
 21
389.6148698853
 31
0.0
  0
ELLIPSE
  5
13C
330
5E
100
AcDbEntity
  8
$DDT_AUDIT_GENERATED_(8B)
  6
Continuous
 62
     7
100
AcDbEllipse
 10
34.8125535987
 20
389.5273698848
 30
0.0
 11
5.249999998013833
 21
6.494804694057167E-10
 31
0.0
210
0.0
220
0.0
230
1.0
 40
0.5000000001
 41
-0.5569382850222713
 42
-0.4902592664852454
  0
LINE
  5
13D
330
5E
100
AcDbEntity
  8
$DDT_AUDIT_GENERATED_(8B)
  6
Continuous
 62
     7
100
AcDbLine
 10
37.2541618856
 20
388.7215019868
 30
0.0
 11
39.2691603572
 21
388.1398220318
 31
0.0
  0
LINE
  5
13E
330
5E
100
AcDbEntity
  8
$DDT_AUDIT_GENERATED_(8B)
  6
Continuous
 62
     7
100
AcDbLine
 10
37.3958277227
 20
388.8826791764
 30
0.0
 11
39.4441603572
 21
388.2913764775
 31
0.0
  0
LINE
  5
13F
330
5E
100
AcDbEntity
  8
$DDT_AUDIT_GENERATED_(8B)
  6
Continuous
 62
     7
100
AcDbLine
 10
39.4441603572
 20
389.4398698853
 30
0.0
 11
39.4441603572
 21
388.2913764775
 31
0.0
  0
ELLIPSE
  5
140
330
5E
100
AcDbEntity
  8
$DDT_AUDIT_GENERATED_(8B)
  6
Continuous
 62
     7
100
AcDbEllipse
 10
34.8125535951
 20
389.5273698867
 30
0.0
 11
5.250000002018683
 21
-9.344192086757630E-10
 31
0.0
210
0.0
220
0.0
230
1.0
 40
0.5000000001
 41
-1.080537060226225
 42
-1.013858041724166
  0
LINE
  5
141
330
5E
100
AcDbEntity
  8
$DDT_AUDIT_GENERATED_(8B)
  6
Continuous
 62
     7
100
AcDbLine
 10
36.1859988582
 20
388.1629313982
 30
0.0
 11
37.2845404124
 21
387.2115665051
 31
0.0
  0
LINE
  5
142
330
5E
100
AcDbEntity
  8
$DDT_AUDIT_GENERATED_(8B)
  6
Continuous
 62
     7
100
AcDbLine
 10
36.4780410706
 20
388.2600154233
 30
0.0
 11
37.5876493038
 21
387.2990665051
 31
0.0
  0
LINE
  5
143
330
5E
100
AcDbEntity
  8
$DDT_AUDIT_GENERATED_(8B)
  6
Continuous
 62
     7
100
AcDbLine
 10
37.5876493038
 20
388.6252324615
 30
0.0
 11
37.5876493038
 21
387.2990665051
 31
0.0
  0
LINE
  5
144
330
5E
100
AcDbEntity
  8
$DDT_AUDIT_GENERATED_(8B)
  6
Continuous
 62
     7
100
AcDbLine
 10
25.8125535967
 20
391.6924333948
 30
0.0
 11
25.8125535967
 21
389.3541648046
 31
0.0
  0
LINE
  5
145
330
5E
100
AcDbEntity
  8
$DDT_AUDIT_GENERATED_(8B)
  6
Continuous
 62
     7
100
AcDbLine
 10
43.8125535967
 20
389.3541648046
 30
0.0
 11
43.8125535967
 21
391.6924333948
 31
0.0
  0
LINE
  5
146
330
5E
100
AcDbEntity
  8
$DDT_AUDIT_GENERATED_(8B)
  6
Continuous
 62
     7
100
AcDbLine
 10
28.5625535967
 20
389.5273698853
 30
0.0
 11
28.5625535967
 21
389.3541648046
 31
0.0
  0
LINE
  5
147
330
5E
100
AcDbEntity
  8
$DDT_AUDIT_GENERATED_(8B)
  6
Continuous
 62
     7
100
AcDbLine
 10
41.0625535967
 20
389.3541648046
 30
0.0
 11
41.0625535967
 21
389.5273698853
 31
0.0
  0
LINE
  5
148
330
5E
100
AcDbEntity
  8
$DDT_AUDIT_GENERATED_(8B)
  6
Continuous
 62
     7
100
AcDbLine
 10
32.0625535967
 20
389.5273698853
 30
0.0
 11
32.0625535967
 21
389.3541648046
 31
0.0
  0
LINE
  5
149
330
5E
100
AcDbEntity
  8
$DDT_AUDIT_GENERATED_(8B)
  6
Continuous
 62
     7
100
AcDbLine
 10
37.5625535967
 20
389.3541648046
 30
0.0
 11
37.5625535967
 21
389.5273698853
 31
0.0
  0
LINE
  5
14A
330
5E
100
AcDbEntity
  8
$DDT_AUDIT_GENERATED_(8B)
  6
Continuous
 62
     7
100
AcDbLine
 10
34.2929236528
 20
389.7472029411
 30
0.0
 11
34.2929236528
 21
389.5273698853
 31
0.0
  0
LINE
  5
14B
330
5E
100
AcDbEntity
  8
$DDT_AUDIT_GENERATED_(8B)
  6
Continuous
 62
     7
100
AcDbLine
 10
35.3321835406
 20
389.5273698853
 30
0.0
 11
35.3321835406
 21
389.7472029411
 31
0.0
  0
SPLINE
  5
14D
330
5E
100
AcDbEntity
  8
$DDT_AUDIT_GENERATED_(14C)
  6
Continuous
 62
     7
100
AcDbSpline
210
0.0
220
0.0
230
1.0
 70
    12
 71
     3
 72
     9
 73
     5
 74
     0
 42
0.0000000009029409
 43
0.0000000001
 40
0.5781504961383738
 40
0.5781504961383738
 40
0.5781504961383738
 40
0.5781504961383738
 40
0.5859374999999919
 40
0.5860405942974977
 40
0.5860405942974977
 40
0.5860405942974977
 40
0.5860405942974977
 10
49.2695590623152
 20
473.8014358317676
 30
0.0
 41
1.0
 10
49.29726628191442
 20
473.7979841588199
 30
0.0
 41
1.0
 10
49.32607779952842
 20
473.7937820474299
 30
0.0
 41
1.0
 10
49.35562402589488
 20
473.7888626157981
 30
0.0
 41
1.0
 10
49.35601021075151
 20
473.7887982146209
 30
0.0
 41
1.0
  0
ELLIPSE
  5
14E
330
5E
100
AcDbEntity
  8
$DDT_AUDIT_GENERATED_(14C)
  6
Continuous
 62
     7
100
AcDbEllipse
 10
46.5536066837
 20
464.6289776857
 30
0.0
 11
-0.472012359069976
 21
1.103269836841947
 31
0.0
210
0.0
220
0.0
230
1.0
 40
0.5995652299
 41
3.116290073867801
 42
3.14159265359
  0
SPLINE
  5
14F
330
5E
100
AcDbEntity
  8
$DDT_AUDIT_GENERATED_(14C)
  6
Continuous
 62
     7
100
AcDbSpline
210
0.0
220
0.0
230
1.0
 70
    12
 71
     3
 72
   111
 73
   107
 74
     0
 42
0.0000000004706935
 43
0.0000000001
 40
0.0
 40
0.0
 40
0.0
 40
0.0
 40
0.0156239913003248
 40
0.0156239913003248
 40
0.0312490073114307
 40
0.0312490073114307
 40
0.0390615153169838
 40
0.0390615153169838
 40
0.0429677693197602
 40
0.0449208963211484
 40
0.0449208963211484
 40
0.0468740233225367
 40
0.0468740233225367
 40
0.0546865313280892
 40
0.0624990393336418
 40
0.0624990393336418
 40
0.0703115473391943
 40
0.0703115473391943
 40
0.0781240553447469
 40
0.0781240553447469
 40
0.0859365633502994
 40
0.0859365633502994
 40
0.093749071355852
 40
0.093749071355852
 40
0.1093740873669571
 40
0.1093740873669571
 40
0.1171865953725093
 40
0.1171865953725093
 40
0.124999103378062
 40
0.124999103378062
 40
0.1328116113836147
 40
0.1328116113836147
 40
0.1406241193891663
 40
0.1406241193891663
 40
0.1484366273947191
 40
0.1484366273947191
 40
0.1562491354002717
 40
0.1562491354002717
 40
0.1640616434058244
 40
0.1640616434058244
 40
0.1718741514113772
 40
0.1718741514113772
 40
0.1796866594169287
 40
0.1796866594169287
 40
0.1874991674224814
 40
0.1874991674224814
 40
0.1894522944238699
 40
0.1914054214252583
 40
0.1914054214252583
 40
0.1953116754280341
 40
0.1953116754280341
 40
0.2031241834335868
 40
0.2031241834335868
 40
0.2109366914391395
 40
0.2109366914391395
 40
0.2148429454419164
 40
0.2148429454419164
 40
0.2167960724433049
 40
0.2167960724433049
 40
0.2187491994446922
 40
0.2343742154557988
 40
0.2343742154557988
 40
0.2499992314669053
 40
0.2656242474780107
 40
0.2656242474780107
 40
0.2812492634891172
 40
0.2812492634891172
 40
0.2968742795002237
 40
0.2968742795002237
 40
0.3046867875057764
 40
0.3124992955113291
 40
0.3203118035168829
 40
0.3281243115224356
 40
0.3359368195279883
 40
0.3437493275335421
 40
0.3515618355390949
 40
0.3515618355390949
 40
0.3593743435446486
 40
0.3593743435446486
 40
0.3671868515502013
 40
0.3671868515502013
 40
0.3710931055529783
 40
0.3710931055529783
 40
0.374999359555754
 40
0.3828118675613078
 40
0.3906243755668605
 40
0.3984368835724144
 40
0.4062493915779671
 40
0.4140618995835208
 40
0.4218744075890735
 40
0.4296869155946273
 40
0.4374994236001801
 40
0.4374994236001801
 40
0.4531244396112866
 40
0.4531244396112866
 40
0.468749455622392
 40
0.468749455622392
 40
0.4843744716334986
 40
0.4843744716334986
 40
0.499999487644605
 40
0.499999487644605
 40
0.5078119956501577
 40
0.5078119956501577
 40
0.5156245036557114
 40
0.5156245036557114
 40
0.5177178308832333
 40
0.5177178308832333
 40
0.5177178308832333
 40
0.5177178308832333
 10
57.35493012651534
 20
465.8647785553234
 30
0.0
 41
1.0
 10
57.34543315477281
 20
466.0167644960584
 30
0.0
 41
1.0
 10
57.33100163696536
 20
466.1657985460933
 30
0.0
 41
1.0
 10
57.28895061989434
 20
466.4579290573125
 30
0.0
 41
1.0
 10
57.26131419864934
 20
466.601027383623
 30
0.0
 41
1.0
 10
57.20806101126013
 20
466.8113969314848
 30
0.0
 41
1.0
 10
57.18834527871984
 20
466.8808065195934
 30
0.0
 41
1.0
 10
57.15562931405294
 20
466.9838641455527
 30
0.0
 41
1.0
 10
57.13848636020803
 20
467.0351286492431
 30
0.0
 41
1.0
 10
57.12013622304603
 20
467.0859979786296
 30
0.0
 41
1.0
 10
57.10763181348184
 20
467.1198230898202
 30
0.0
 41
1.0
 10
57.10124427364914
 20
467.1366911043278
 30
0.0
 41
1.0
 10
57.06864409268684
 20
467.2207586425625
 30
0.0
 41
1.0
 10
57.01220501810383
 20
467.3536081491895
 30
0.0
 41
1.0
 10
56.94711781313003
 20
467.4831486858753
 30
0.0
 41
1.0
 10
56.87776432278083
 20
467.6110271950311
 30
0.0
 41
1.0
 10
56.84095541190703
 20
467.67413537288
 30
0.0
 41
1.0
 10
56.76321755610653
 20
467.7986716443018
 30
0.0
 41
1.0
 10
56.72229066615922
 20
467.8600997285926
 30
0.0
 41
1.0
 10
56.63650567162223
 20
467.9812489498977
 30
0.0
 41
1.0
 10
56.59163940884073
 20
468.0409667783917
 30
0.0
 41
1.0
 10
56.49821638779663
 20
468.1585123699426
 30
0.0
 41
1.0
 10
56.44966367555583
 20
468.2163534026868
 30
0.0
 41
1.0
 10
56.29893083662073
 20
468.3869335398959
 30
0.0
 41
1.0
 10
56.19168160403903
 20
468.4967315377785
 30
0.0
 41
1.0
 10
56.02245011237403
 20
468.6548430708129
 30
0.0
 41
1.0
 10
55.96464548860563
 20
468.7064478852118
 30
0.0
 41
1.0
 10
55.84653221102833
 20
468.8073578206586
 30
0.0
 41
1.0
 10
55.78622286906852
 20
468.8566610727013
 30
0.0
 41
1.0
 10
55.66338619452132
 20
468.952921579757
 30
0.0
 41
1.0
 10
55.60085726160712
 20
468.999875746425
 30
0.0
 41
1.0
 10
55.47390234811252
 20
469.09152251184
 30
0.0
 41
1.0
 10
55.40947367947362
 20
469.1362115069948
 30
0.0
 41
1.0
 10
55.27913957881172
 20
469.2236484935338
 30
0.0
 41
1.0
 10
55.21323183798123
 20
469.2663964136181
 30
0.0
 41
1.0
 10
55.08054290962092
 20
469.350583465482
 30
0.0
 41
1.0
 10
55.01376428302802
 20
469.3920325935177
 30
0.0
 41
1.0
 10
54.88013534553313
 20
469.4744391696216
 30
0.0
 41
1.0
 10
54.81329417662023
 20
469.5154121035558
 30
0.0
 41
1.0
 10
54.68036120576802
 20
469.5974473337729
 30
0.0
 41
1.0
 10
54.61427618996373
 20
469.6385120650459
 30
0.0
 41
1.0
 10
54.48341639668832
 20
469.7207399878783
 30
0.0
 41
1.0
 10
54.41864006117342
 20
469.761891894335
 30
0.0
 41
1.0
 10
54.29061025707002
 20
469.8438883835984
 30
0.0
 41
1.0
 10
54.22735223023842
 20
469.8847228371769
 30
0.0
 41
1.0
 10
54.14921935603652
 20
469.935294844777
 30
0.0
 41
1.0
 10
54.11805931412942
 20
469.9554769495473
 30
0.0
 41
1.0
 10
54.08708324360962
 20
469.9755557122505
 30
0.0
 41
1.0
 10
54.04072367812911
 20
470.0055211290418
 30
0.0
 41
1.0
 10
54.00996788900792
 20
470.0253200951196
 30
0.0
 41
1.0
 10
53.91814915073532
 20
470.0842128353837
 30
0.0
 41
1.0
 10
53.85753628748081
 20
470.122802806266
 30
0.0
 41
1.0
 10
53.73743214878912
 20
470.1988122179525
 30
0.0
 41
1.0
 10
53.67795871668392
 20
470.2362210855657
 30
0.0
 41
1.0
 10
53.58944887165102
 20
470.2916033362606
 30
0.0
 41
1.0
 10
53.56006123503801
 20
470.3099424690652
 30
0.0
 41
1.0
 10
53.51612154417702
 20
470.337291189204
 30
0.0
 41
1.0
 10
53.50150214893781
 20
470.3463891941816
 30
0.0
 41
1.0
 10
53.47228283647761
 20
470.3644869696264
 30
0.0
 41
1.0
 10
53.34088603795762
 20
470.445475363695
 30
0.0
 41
1.0
 10
53.21031865012571
 20
470.522405669192
 30
0.0
 41
1.0
 10
52.98011066735282
 20
470.6528492339069
 30
0.0
 41
1.0
 10
52.75181184105781
 20
470.7769710677551
 30
0.0
 41
1.0
 10
52.52899385974281
 20
470.8886577875065
 30
0.0
 41
1.0
 10
52.30998428746681
 20
470.9942611800673
 30
0.0
 41
1.0
 10
52.20238802160321
 20
471.0440207346612
 30
0.0
 41
1.0
 10
51.99224920406421
 20
471.1376349604295
 30
0.0
 41
1.0
 10
51.8897171418316
 20
471.1814895964704
 30
0.0
 41
1.0
 10
51.74061579048131
 20
471.2430174467297
 30
0.0
 41
1.0
 10
51.64277726242221
 20
471.2826188063103
 30
0.0
 41
1.0
 10
51.50104720853311
 20
471.3378699823572
 30
0.0
 41
1.0
 10
51.36454832305451
 20
471.3890770162005
 30
0.0
 41
1.0
 10
51.23329546312441
 20
471.436349718329
 30
0.0
 41
1.0
 10
51.1070698245171
 20
471.4797983583516
 30
0.0
 41
1.0
 10
50.9853915894122
 20
471.5195322394611
 30
0.0
 41
1.0
 10
50.9068088144832
 20
471.5436173636682
 30
0.0
 41
1.0
 10
50.8291687128018
 20
471.5665369898024
 30
0.0
 41
1.0
 10
50.7908175828776
 20
471.5774144982361
 30
0.0
 41
1.0
 10
50.7146778709811
 20
471.5980396725028
 30
0.0
 41
1.0
 10
50.6768997102623
 20
471.6077843557991
 30
0.0
 41
1.0
 10
50.620345293512
 20
471.6215822521772
 30
0.0
 41
1.0
 10
50.6015151597488
 20
471.6260551768682
 30
0.0
 41
1.0
 10
50.56379837815759
 20
471.6346526189715
 30
0.0
 41
1.0
 10
50.50718027147811
 20
471.6470448280957
 30
0.0
 41
1.0
 10
50.4130935758465
 20
471.6652150395898
 30
0.0
 41
1.0
 10
50.302020485608
 20
471.6831560248942
 30
0.0
 41
1.0
 10
50.1939203327578
 20
471.6973306395826
 30
0.0
 41
1.0
 10
50.0896622533003
 20
471.7078181464552
 30
0.0
 41
1.0
 10
49.98984524108189
 20
471.7146803094578
 30
0.0
 41
1.0
 10
49.8948229471853
 20
471.7179643852139
 30
0.0
 41
1.0
 10
49.80474095214609
 20
471.7177073099934
 30
0.0
 41
1.0
 10
49.74796561524769
 20
471.7151956423041
 30
0.0
 41
1.0
 10
49.6651891643546
 20
471.7096869409385
 30
0.0
 41
1.0
 10
49.61319613211529
 20
471.7036926348177
 30
0.0
 41
1.0
 10
49.51487569633279
 20
471.6871351507737
 30
0.0
 41
1.0
 10
49.46854098260169
 20
471.6765718071752
 30
0.0
 41
1.0
 10
49.38059317362159
 20
471.6509594016971
 30
0.0
 41
1.0
 10
49.33897605093929
 20
471.6359104210913
 30
0.0
 41
1.0
 10
49.25948114126238
 20
471.601419874159
 30
0.0
 41
1.0
 10
49.22160140852889
 20
471.5819784575199
 30
0.0
 41
1.0
 10
49.16688472112988
 20
471.5495961861778
 30
0.0
 41
1.0
 10
49.14899683196769
 20
471.5382654353507
 30
0.0
 41
1.0
 10
49.11381401990679
 20
471.5145431435968
 30
0.0
 41
1.0
 10
49.09651826397119
 20
471.5021509802565
 30
0.0
 41
1.0
 10
49.07490087284971
 20
471.4857755420588
 30
0.0
 41
1.0
 10
49.07035046961936
 20
471.482277665968
 30
0.0
 41
1.0
 10
49.06581699123829
 20
471.4787425432728
 30
0.0
 41
1.0
  0
ARC
  5
150
330
5E
100
AcDbEntity
  8
$DDT_AUDIT_GENERATED_(14C)
  6
Continuous
 62
     7
100
AcDbCircle
 10
10841.2339232283
 20
67.069909203
 30
0.0
 40
10836.30435557808
100
AcDbArc
 50
177.8909333537
 51
178.0540119989
  0
SPLINE
  5
151
330
5E
100
AcDbEntity
  8
$DDT_AUDIT_GENERATED_(14C)
  6
Continuous
 62
     7
100
AcDbSpline
210
0.0
220
0.0
230
1.0
 70
    12
 71
     3
 72
    86
 73
    82
 74
     0
 42
0.0000000004738061
 43
0.0000000001
 40
0.4807907748290126
 40
0.4807907748290126
 40
0.4807907748290126
 40
0.4807907748290126
 40
0.4843766322473989
 40
0.5000016849005408
 40
0.5000016849005408
 40
0.5312517902068231
 40
0.5312517902068231
 40
0.5468768428599649
 40
0.5468768428599649
 40
0.5625018955131066
 40
0.5625018955131066
 40
0.570314421839677
 40
0.5781269481662483
 40
0.5859394744928187
 40
0.593752000819389
 40
0.6015645271459604
 40
0.6093770534725307
 40
0.6171895797991022
 40
0.6250021061256724
 40
0.6250021061256724
 40
0.6289083692889577
 40
0.6289083692889577
 40
0.6328146324522428
 40
0.6328146324522428
 40
0.6406271587788143
 40
0.6484396851053846
 40
0.6484396851053846
 40
0.6562522114319561
 40
0.6562522114319561
 40
0.6640647377585264
 40
0.6718772640850967
 40
0.6796897904116681
 40
0.6875023167382385
 40
0.6953148430648098
 40
0.7031273693913801
 40
0.7031273693913801
 40
0.7187524220445219
 40
0.7187524220445219
 40
0.7343774746976638
 40
0.7343774746976638
 40
0.7500025273508043
 40
0.7656275800039462
 40
0.7656275800039462
 40
0.7812526326570878
 40
0.7812526326570878
 40
0.785158895820373
 40
0.785158895820373
 40
0.789065158983658
 40
0.789065158983658
 40
0.7968776853102295
 40
0.7968776853102295
 40
0.8046902116368
 40
0.8125027379633702
 40
0.8203152642899416
 40
0.8203152642899416
 40
0.8281277906165119
 40
0.8281277906165119
 40
0.8437528432696537
 40
0.8437528432696537
 40
0.8593778959227942
 40
0.8593778959227942
 40
0.8750029485759361
 40
0.8750029485759361
 40
0.8906280012290779
 40
0.8906280012290779
 40
0.9062530538822197
 40
0.9062530538822197
 40
0.9140655802087899
 40
0.9140655802087899
 40
0.9218781065353604
 40
0.9218781065353604
 40
0.937503159188502
 40
0.937503159188502
 40
0.9453156855150736
 40
0.9531282118416436
 40
0.9609407381682141
 40
0.9687532644947855
 40
0.9765657908213558
 40
0.9843783171479262
 40
0.9843783171479262
 40
1.0
 40
1.0
 40
1.0
 40
1.0
 10
20.55089756219262
 20
471.4808468104815
 30
0.0
 41
1.0
 10
20.54314131266933
 20
471.4870042092674
 30
0.0
 41
1.0
 10
20.50133272911234
 20
471.5194053730865
 30
0.0
 41
1.0
 10
20.45802617386179
 20
471.5486486089318
 30
0.0
 41
1.0
 10
20.34811125331889
 20
471.6136028541243
 30
0.0
 41
1.0
 10
20.26919154622789
 20
471.6483676674183
 30
0.0
 41
1.0
 10
20.13664492785129
 20
471.6872264433738
 30
0.0
 41
1.0
 10
20.09009312596649
 20
471.6979657007539
 30
0.0
 41
1.0
 10
19.9913360475209
 20
471.7149517651911
 30
0.0
 41
1.0
 10
19.93912333373469
 20
471.7211989324845
 30
0.0
 41
1.0
 10
19.85603497863049
 20
471.7271565821653
 30
0.0
 41
1.0
 10
19.7990577802256
 20
471.7299906941111
 30
0.0
 41
1.0
 10
19.70870491261259
 20
471.7308041764275
 30
0.0
 41
1.0
 10
19.6134599228668
 20
471.7281494226929
 30
0.0
 41
1.0
 10
19.5134865907722
 20
471.7219851049732
 30
0.0
 41
1.0
 10
19.4091573004788
 20
471.7122536563979
 30
0.0
 41
1.0
 10
19.3010879618753
 20
471.6988760023684
 30
0.0
 41
1.0
 10
19.1901596079647
 20
471.6817481034937
 30
0.0
 41
1.0
 10
19.1150648006239
 20
471.6677435434337
 30
0.0
 41
1.0
 10
19.0586600171229
 20
471.6562334151108
 30
0.0
 41
1.0
 10
19.0398449711093
 20
471.6522288916414
 30
0.0
 41
1.0
 10
19.0022509937297
 20
471.6438777664709
 30
0.0
 41
1.0
 10
18.9834830219809
 20
471.6395287770323
 30
0.0
 41
1.0
 10
18.9271045946259
 20
471.6261028394499
 30
0.0
 41
1.0
 10
18.8517750439234
 20
471.6070985726985
 30
0.0
 41
1.0
 10
18.7752499692362
 20
471.5858483129393
 30
0.0
 41
1.0
 10
18.6977260848868
 20
471.5634584960102
 30
0.0
 41
1.0
 10
18.6584581374555
 20
471.5516917915219
 30
0.0
 41
1.0
 10
18.578647760817
 20
471.5270225815551
 30
0.0
 41
1.0
 10
18.49755183850461
 20
471.5012150226524
 30
0.0
 41
1.0
 10
18.3713227905286
 20
471.4590579674991
 30
0.0
 41
1.0
 10
18.2400544217315
 20
471.4134170640219
 30
0.0
 41
1.0
 10
18.10356646210971
 20
471.3642423938996
 30
0.0
 41
1.0
 10
17.96192248947231
 20
471.3114707719271
 30
0.0
 41
1.0
 10
17.86422860312551
 20
471.2738410941476
 30
0.0
 41
1.0
 10
17.71543914723491
 20
471.215516717552
 30
0.0
 41
1.0
 10
17.6132424316419
 20
471.174128204936
 30
0.0
 41
1.0
 10
17.4041775491395
 20
471.086079182825
 30
0.0
 41
1.0
 10
17.29732090586871
 20
471.0394178744994
 30
0.0
 41
1.0
 10
17.08030225821931
 20
470.940543911166
 30
0.0
 41
1.0
 10
16.85998766128111
 20
470.8361176839899
 30
0.0
 41
1.0
 10
16.63530275857632
 20
470.7200351608858
 30
0.0
 41
1.0
 10
16.40923971088162
 20
470.5978595326871
 30
0.0
 41
1.0
 10
16.29551743607691
 20
470.5337252356557
 30
0.0
 41
1.0
 10
16.15282584542411
 20
470.4495927036687
 30
0.0
 41
1.0
 10
16.12427111975592
 20
470.4325470593006
 30
0.0
 41
1.0
 10
16.06702581330012
 20
470.3982347111062
 30
0.0
 41
1.0
 10
16.03833784394542
 20
470.3809503445624
 30
0.0
 41
1.0
 10
15.95202950933962
 20
470.3286706426885
 30
0.0
 41
1.0
 10
15.89416060930362
 20
470.2932472645111
 30
0.0
 41
1.0
 10
15.77761390520242
 20
470.2210740998792
 30
0.0
 41
1.0
 10
15.66026021653041
 20
470.1475751924779
 30
0.0
 41
1.0
 10
15.48172425713752
 20
470.032918464706
 30
0.0
 41
1.0
 10
15.36116309087432
 20
469.9533214807719
 30
0.0
 41
1.0
 10
15.23997065045832
 20
469.8720616903946
 30
0.0
 41
1.0
 10
15.17905072173542
 20
469.8305945186667
 30
0.0
 41
1.0
 10
14.99574100645222
 20
469.703687826802
 30
0.0
 41
1.0
 10
14.87276392512842
 20
469.6157172255395
 30
0.0
 41
1.0
 10
14.62721170249132
 20
469.4328593552361
 30
0.0
 41
1.0
 10
14.50464388080633
 20
469.3379746783049
 30
0.0
 41
1.0
 10
14.26214029594172
 20
469.1413614280901
 30
0.0
 41
1.0
 10
14.14220742490512
 20
469.0396354557736
 30
0.0
 41
1.0
 10
13.90731913105282
 20
468.8295859099501
 30
0.0
 41
1.0
 10
13.79236463847242
 20
468.7212646104571
 30
0.0
 41
1.0
 10
13.56984589331033
 20
468.498369927874
 30
0.0
 41
1.0
 10
13.46228297605733
 20
468.3837984440295
 30
0.0
 41
1.0
 10
13.30832304296903
 20
468.2075389312338
 30
0.0
 41
1.0
 10
13.25823406330314
 20
468.1480521642823
 30
0.0
 41
1.0
 10
13.16082315008843
 20
468.0276578839894
 30
0.0
 41
1.0
 10
13.11350282726933
 20
467.9667636870117
 30
0.0
 41
1.0
 10
12.97607121925013
 20
467.7821081826756
 30
0.0
 41
1.0
 10
12.89049061413384
 20
467.6563185116749
 30
0.0
 41
1.0
 10
12.77295223857863
 20
467.4637283899968
 30
0.0
 41
1.0
 10
12.69820583988854
 20
467.3340365022255
 30
0.0
 41
1.0
 10
12.59773276860254
 20
467.1356832569721
 30
0.0
 41
1.0
 10
12.50959281760034
 20
466.9335745670274
 30
0.0
 41
1.0
 10
12.43433096441004
 20
466.7277380898141
 30
0.0
 41
1.0
 10
12.37235369720534
 20
466.5181676921493
 30
0.0
 41
1.0
 10
12.34007795397264
 20
466.3759400509273
 30
0.0
 41
1.0
 10
12.29853483874197
 20
466.1607121587159
 30
0.0
 41
1.0
 10
12.28000443842721
 20
466.0146846396409
 30
0.0
 41
1.0
 10
12.27026809506814
 20
465.8659003118434
 30
0.0
 41
1.0
  0
SPLINE
  5
152
330
5E
100
AcDbEntity
  8
$DDT_AUDIT_GENERATED_(14C)
  6
Continuous
 62
     7
100
AcDbSpline
210
0.0
220
0.0
230
1.0
 70
    12
 71
     3
 72
     8
 73
     4
 74
     0
 42
0.0000000004045643
 43
0.0000000001
 40
0.9996788842725061
 40
0.9996788842725061
 40
0.9996788842725061
 40
0.9996788842725061
 40
1.0
 40
1.0
 40
1.0
 40
1.0
 10
57.35541278824096
 20
465.8568559265047
 30
0.0
 41
1.0
 10
57.35525578873428
 20
465.8594972340366
 30
0.0
 41
1.0
 10
57.35509490329216
 20
465.8621381106516
 30
0.0
 41
1.0
 10
57.35493012651534
 20
465.8647785553234
 30
0.0
 41
1.0
  0
ELLIPSE
  5
153
330
5E
100
AcDbEntity
  8
$DDT_AUDIT_GENERATED_(14C)
  6
Continuous
 62
     7
100
AcDbEllipse
 10
23.0557725989
 20
464.6294854177
 30
0.0
 11
0.4760097096370015
 21
1.101551068417195
 31
0.0
210
0.0
220
0.0
230
0.9999999999999998
 40
0.6050244219
 41
3.141592653589804
 42
3.167290300856201
  0
ARC
  5
154
330
5E
100
AcDbEntity
  8
$DDT_AUDIT_GENERATED_(14C)
  6
Continuous
 62
     7
100
AcDbCircle
 10
-9833.320980052
 20
100.8261835675
 30
0.0
 40
9897.409920581093
100
AcDbArc
 50
1.9337309687
 51
2.1136757738
  0
ARC
  5
155
330
5E
100
AcDbEntity
  8
$DDT_AUDIT_GENERATED_(14C)
  6
Continuous
 62
     7
100
AcDbCircle
 10
34.8116958572
 20
394.1408430277
 30
0.0
 40
80.96092246794758
100
AcDbArc
 50
79.7043867174
 51
100.2914813017
  0
ARC
  5
156
330
5E
100
AcDbEntity
  8
$DDT_AUDIT_GENERATED_(14C)
  6
Continuous
 62
     7
100
AcDbCircle
 10
46.5536066837
 20
464.6289776857
 30
0.0
 40
1.200000000000013
100
AcDbArc
 50
293.1627106372
 51
349.0697753015
  0
SPLINE
  5
157
330
5E
100
AcDbEntity
  8
$DDT_AUDIT_GENERATED_(14C)
  6
Continuous
 62
     7
100
AcDbSpline
210
0.0
220
0.0
230
1.0
 70
     8
 71
     3
 72
    38
 73
    34
 74
     0
 42
0.0000000013798124
 43
0.0000000001
 40
0.0
 40
0.0
 40
0.0
 40
0.0
 40
0.0611329923209648
 40
0.1192933048799145
 40
0.1744986591714989
 40
0.2267612967495315
 40
0.2760895851707428
 40
0.3216862117183464
 40
0.3644611653395619
 40
0.4044167446388694
 40
0.4415521373052493
 40
0.4803012294498768
 40
0.5153806836737349
 40
0.5467995620850356
 40
0.5745657092683998
 40
0.5986852013059932
 40
0.6191628787061275
 40
0.6360025354576766
 40
0.6492067736448223
 40
0.6588660158192635
 40
0.6686397745455737
 40
0.6804489957723473
 40
0.6942931792119083
 40
0.7101718479295879
 40
0.7280847495546039
 40
0.7480325291566652
 40
0.7698992749388912
 40
0.8016483393004239
 40
0.8363534736246825
 40
0.8740288167283299
 40
0.9146988365767184
 40
0.9582956010983416
 40
1.0
 40
1.0
 40
1.0
 40
1.0
 10
47.73161254161703
 20
464.400281247651
 30
0.0
 10
47.78443613342279
 20
464.682591200044
 30
0.0
 10
47.87051114203397
 20
465.1449299737956
 30
0.0
 10
47.98434712514135
 20
465.8485554081402
 30
0.0
 10
48.07604238267039
 20
466.4717130278183
 30
0.0
 10
48.15250317128267
 20
467.0385412858062
 30
0.0
 10
48.21655233497077
 20
467.5457655235996
 30
0.0
 10
48.27148210169079
 20
467.9993302604099
 30
0.0
 10
48.31966883046817
 20
468.4033322329627
 30
0.0
 10
48.36321638382369
 20
468.7641286000736
 30
0.0
 10
48.40498060953648
 20
469.0975773844193
 30
0.0
 10
48.44558420586888
 20
469.4022956987845
 30
0.0
 10
48.48552667428659
 20
469.6773280841811
 30
0.0
 10
48.52308199452831
 20
469.9119474133922
 30
0.0
 10
48.55808334664496
 20
470.1096222503863
 30
0.0
 10
48.59008602601315
 20
470.2734640713259
 30
0.0
 10
48.6184935810372
 20
470.4062733151489
 30
0.0
 10
48.64259468455751
 20
470.5103355644766
 30
0.0
 10
48.66185539622058
 20
470.5881446674328
 30
0.0
 10
48.67729863549085
 20
470.647459715268
 30
0.0
 10
48.6912287403143
 20
470.6988116986806
 30
0.0
 10
48.7068440660284
 20
470.7537490758114
 30
0.0
 10
48.72507424654877
 20
470.8143899461322
 30
0.0
 10
48.74617790748323
 20
470.8801093781444
 30
0.0
 10
48.77040678895053
 20
470.949931258412
 30
0.0
 10
48.79820030417264
 20
471.023158010442
 30
0.0
 10
48.83307434530568
 20
471.1060312680053
 30
0.0
 10
48.87208180344724
 20
471.1877499390142
 30
0.0
 10
48.91524956826217
 20
471.2663756995088
 30
0.0
 10
48.95833193556767
 20
471.3350524458151
 30
0.0
 10
48.99874030437607
 20
471.3940042711791
 30
0.0
 10
49.03202626735987
 20
471.4442826295696
 30
0.0
 10
49.05388285280757
 20
471.4659393034505
 30
0.0
 10
49.06629512432551
 20
471.4781747368719
 30
0.0
  0
SPLINE
  5
158
330
5E
100
AcDbEntity
  8
$DDT_AUDIT_GENERATED_(14C)
  6
Continuous
 62
     7
100
AcDbSpline
210
0.0
220
0.0
230
1.0
 70
     8
 71
     3
 72
    53
 73
    49
 74
     0
 42
0.0000000008586063
 43
0.0000000001
 40
0.0057640108142089
 40
0.0057640108142089
 40
0.0057640108142089
 40
0.0057640108142089
 40
0.0208678177981591
 40
0.0525285015196522
 40
0.0802836142995185
 40
0.1040962427321473
 40
0.1210105492410387
 40
0.1350817427539132
 40
0.1463107630205842
 40
0.154798493872514
 40
0.1632000353132795
 40
0.1727105728103692
 40
0.1833283242969532
 40
0.1950519075446293
 40
0.211351003411512
 40
0.2293616843210198
 40
0.2473605914710139
 40
0.2630519143853061
 40
0.2764407681967241
 40
0.2955516808094483
 40
0.3151070498950921
 40
0.3421364166248432
 40
0.3747633789222335
 40
0.4051298585864809
 40
0.4323687011560962
 40
0.456792975442961
 40
0.4806037612259675
 40
0.5071162535350088
 40
0.5338819879394314
 40
0.5634688830105089
 40
0.5963377789136044
 40
0.624463487720549
 40
0.6546133118440802
 40
0.6859715613888403
 40
0.7153858905170484
 40
0.7401767038326672
 40
0.7631177506943162
 40
0.7842123694099767
 40
0.8034576626984226
 40
0.82112265932664
 40
0.8343639991981548
 40
0.8506021906974284
 40
0.8698422659251092
 40
0.8920888688361658
 40
0.9173246474917327
 40
0.9455385571300714
 40
0.9767403224974246
 40
1.0
 40
1.0
 40
1.0
 40
1.0
 10
57.31896740767817
 20
466.1515900154669
 30
0.0
 10
57.31345976066885
 20
466.2232772470091
 30
0.0
 10
57.29600162755102
 20
466.4268730196334
 30
0.0
 10
57.24353416131111
 20
466.7662866869888
 30
0.0
 10
57.16151981330842
 20
467.1307394555558
 30
0.0
 10
57.07138840725554
 20
467.4290029378342
 30
0.0
 10
56.98410588150681
 20
467.6663898563262
 30
0.0
 10
56.90682925511889
 20
467.8503261441854
 30
0.0
 10
56.8380600362245
 20
467.9986763079724
 30
0.0
 10
56.77363774958643
 20
468.1279244434872
 30
0.0
 10
56.70967838853264
 20
468.2485997162946
 30
0.0
 10
56.63811930080028
 20
468.3756564953188
 30
0.0
 10
56.55451636830997
 20
468.5150012717885
 30
0.0
 10
56.44826074650089
 20
468.6808476993576
 30
0.0
 10
56.31453267561945
 20
468.8742495858199
 30
0.0
 10
56.15323273753438
 20
469.088765722902
 30
0.0
 10
55.9848500800386
 20
469.2957865463839
 30
0.0
 10
55.82511881901689
 20
469.4796361753458
 30
0.0
 10
55.65727015860999
 20
469.6631169438452
 30
0.0
 10
55.47315143609162
 20
469.853942150697
 30
0.0
 10
55.2458790733434
 20
470.0772062341379
 30
0.0
 10
54.96770462376217
 20
470.335729113628
 30
0.0
 10
54.64740828876382
 20
470.616555019081
 30
0.0
 10
54.32544754385896
 20
470.8869010266948
 30
0.0
 10
54.03762131302119
 20
471.1222050952042
 30
0.0
 10
53.78221530875122
 20
471.3272733314093
 30
0.0
 10
53.5357720543394
 20
471.5219728813829
 30
0.0
 10
53.28823521698934
 20
471.7136356660006
 30
0.0
 10
53.02650760056019
 20
471.9098182795002
 30
0.0
 10
52.74757181613287
 20
472.1103795679192
 30
0.0
 10
52.46904962004312
 20
472.3019854036071
 30
0.0
 10
52.19457778419265
 20
472.4829501881931
 30
0.0
 10
51.93140431032666
 20
472.6497245645929
 30
0.0
 10
51.67335849776963
 20
472.806775270842
 30
0.0
 10
51.43920432649453
 20
472.943869514505
 30
0.0
 10
51.23603336568878
 20
473.0587450035733
 30
0.0
 10
51.06117693093348
 20
473.1544278640284
 30
0.0
 10
50.90569374865692
 20
473.2366615794058
 30
0.0
 10
50.76677027569383
 20
473.307487287384
 30
0.0
 10
50.64975263607086
 20
473.364833635281
 30
0.0
 10
50.53720819138952
 20
473.4177189995111
 30
0.0
 10
50.42028294315979
 20
473.470127941962
 30
0.0
 10
50.28157105578094
 20
473.5283027474666
 30
0.0
 10
50.12066673218521
 20
473.5897809506504
 30
0.0
 10
49.93569648827595
 20
473.6520621602812
 30
0.0
 10
49.73256583270177
 20
473.7105608002079
 30
0.0
 10
49.53355826969785
 20
473.7583368886648
 30
0.0
 10
49.42204334885452
 20
473.7766564210087
 30
0.0
 10
49.36582676816703
 20
473.7856943838452
 30
0.0
  0
SPLINE
  5
159
330
5E
100
AcDbEntity
  8
$DDT_AUDIT_GENERATED_(14C)
  6
Continuous
 62
     7
100
AcDbSpline
210
0.0
220
0.0
230
1.0
 70
     8
 71
     3
 72
    46
 73
    42
 74
     0
 42
0.0000000013800545
 43
0.0000000001
 40
0.0
 40
0.0
 40
0.0
 40
0.0
 40
0.0329610493257183
 40
0.0676057794954886
 40
0.0991230745522641
 40
0.1274639473545512
 40
0.1526225849754569
 40
0.174610464218424
 40
0.1924431582666322
 40
0.2075968882457476
 40
0.2216309332944592
 40
0.234996849060785
 40
0.2476949925961601
 40
0.2628907479470037
 40
0.2770050723331854
 40
0.2900412283013065
 40
0.3041577302306098
 40
0.3211879968551533
 40
0.3407544135692177
 40
0.3631408344121595
 40
0.3883534901738599
 40
0.4163996320297191
 40
0.4504496576211598
 40
0.4827467557582621
 40
0.5130063783819628
 40
0.5412291298873619
 40
0.5674170058505863
 40
0.5865665466924218
 40
0.6044612426393828
 40
0.6212099716625639
 40
0.6398263551954515
 40
0.6616760279222261
 40
0.6867578948340152
 40
0.7150708639744822
 40
0.7466139364758965
 40
0.7813867049322789
 40
0.8193891929792261
 40
0.8598579494823699
 40
0.9034458014438628
 40
0.950157261122764
 40
1.0
 40
1.0
 40
1.0
 40
1.0
 10
20.55038194995022
 20
471.4804773995345
 30
0.0
 10
20.56060328402257
 20
471.4707396821083
 30
0.0
 10
20.57843371319474
 20
471.4536320630883
 30
0.0
 10
20.60372765703297
 20
471.4175940030458
 30
0.0
 10
20.6301733456765
 20
471.3786918477343
 30
0.0
 10
20.65795614758316
 20
471.3378204306228
 30
0.0
 10
20.68494665911441
 20
471.2957406822085
 30
0.0
 10
20.71029341175504
 20
471.2531956693424
 30
0.0
 10
20.73347615475387
 20
471.2112364835855
 30
0.0
 10
20.75591348523862
 20
471.1674262297093
 30
0.0
 10
20.7762140669812
 20
471.1248164813418
 30
0.0
 10
20.79510130317399
 20
471.0824553587819
 30
0.0
 10
20.81440674956428
 20
471.03636418014
 30
0.0
 10
20.8339296621218
 20
470.9865575598342
 30
0.0
 10
20.85359379922889
 20
470.9327763231803
 30
0.0
 10
20.87268837503752
 20
470.8771247475653
 30
0.0
 10
20.89378461283705
 20
470.8116122557648
 30
0.0
 10
20.91821668161541
 20
470.7298865324415
 30
0.0
 10
20.94607922750133
 20
470.6282504357148
 30
0.0
 10
20.97672412084566
 20
470.5050483968751
 30
0.0
 10
21.00966471497718
 20
470.3578146431234
 30
0.0
 10
21.04569892986473
 20
470.1777326153837
 30
0.0
 10
21.08236273034841
 20
469.9711271218188
 30
0.0
 10
21.11793649296382
 20
469.7469822522553
 30
0.0
 10
21.1502242882131
 20
469.5247443920012
 30
0.0
 10
21.17979431467018
 20
469.3069842411621
 30
0.0
 10
21.20539435171835
 20
469.1089238554741
 30
0.0
 10
21.2275718420399
 20
468.9318794619024
 30
0.0
 10
21.24667952160697
 20
468.7762889045698
 30
0.0
 10
21.26597663210595
 20
468.6170505104856
 30
0.0
 10
21.28714694518266
 20
468.4407419769472
 30
0.0
 10
21.31193750433991
 20
468.2332237413007
 30
0.0
 10
21.34126290567313
 20
467.9881792160954
 30
0.0
 10
21.37572497879037
 20
467.7033581359419
 30
0.0
 10
21.41619579413214
 20
467.3762033886096
 30
0.0
 10
21.46389471752119
 20
467.0038372931383
 30
0.0
 10
21.52002289262927
 20
466.5861802192549
 30
0.0
 10
21.58661076122869
 20
466.1196617299568
 30
0.0
 10
21.6655122436877
 20
465.6053316965643
 30
0.0
 10
21.7624190448393
 20
465.0206693859595
 30
0.0
 10
21.83349881409409
 20
464.6379798394623
 30
0.0
 10
21.87739968081536
 20
464.4026878933208
 30
0.0
  0
SPLINE
  5
15A
330
5E
100
AcDbEntity
  8
$DDT_AUDIT_GENERATED_(14C)
  6
Continuous
 62
     7
100
AcDbSpline
210
0.0
220
0.0
230
1.0
 70
     8
 71
     3
 72
    45
 73
    41
 74
     0
 42
0.0000000008617773
 43
0.0000000001
 40
0.0
 40
0.0
 40
0.0
 40
0.0
 40
0.0222713680636969
 40
0.0550416478515851
 40
0.0846974406543874
 40
0.1112476593228254
 40
0.1346700664025577
 40
0.1546188290615108
 40
0.1715453256989085
 40
0.1858137967502745
 40
0.1997756386472588
 40
0.2505511552902385
 40
0.3030109347826637
 40
0.3524828195721565
 40
0.4046458540379937
 40
0.4564240662530329
 40
0.5059855533917751
 40
0.5669699348382388
 40
0.6295533396955688
 40
0.6490566227003319
 40
0.6671395730083274
 40
0.6837756037453802
 40
0.6989617102801
 40
0.7141644426479739
 40
0.7310196883412265
 40
0.7503257290069084
 40
0.7720951327113704
 40
0.79498661455879
 40
0.814311264112589
 40
0.829656321231736
 40
0.8369477836459477
 40
0.8428514276984003
 40
0.8503978894533164
 40
0.8613582310829291
 40
0.8757470983643559
 40
0.8935841506709097
 40
0.9148939565360761
 40
0.9397065462381852
 40
0.968059402485232
 40
1.0
 40
1.0
 40
1.0
 40
1.0
 10
20.23811797463123
 20
473.7819024834023
 30
0.0
 10
20.18404039267075
 20
473.773096504266
 30
0.0
 10
20.07072444434156
 20
473.7542619616114
 30
0.0
 10
19.86604080547171
 20
473.7037779546166
 30
0.0
 10
19.65274131449952
 20
473.6405718987461
 30
0.0
 10
19.45952308754133
 20
473.5732062261756
 30
0.0
 10
19.29272911243291
 20
473.5070643271238
 30
0.0
 10
19.14952938925297
 20
473.4448875649885
 30
0.0
 10
19.02843049089417
 20
473.3888221066819
 30
0.0
 10
18.92323835551738
 20
473.3378765452039
 30
0.0
 10
18.73691705645782
 20
473.2445151532917
 30
0.0
 10
18.45054510686938
 20
473.0913423825186
 30
0.0
 10
18.05392801697993
 20
472.8629678027802
 30
0.0
 10
17.62260803716704
 20
472.597170263958
 30
0.0
 10
17.1725280927458
 20
472.2991606778124
 30
0.0
 10
16.70728117278265
 20
471.9670063649358
 30
0.0
 10
16.20717827114444
 20
471.5807572387092
 30
0.0
 10
15.65401954438375
 20
471.1277713074941
 30
0.0
 10
15.17402701654514
 20
470.7124379259279
 30
0.0
 10
14.83656688674248
 20
470.4029820590771
 30
0.0
 10
14.6533870969701
 20
470.2299085632037
 30
0.0
 10
14.48493582589568
 20
470.0657126116224
 30
0.0
 10
14.32681902131951
 20
469.9066269979989
 30
0.0
 10
14.16781791246531
 20
469.7412214591925
 30
0.0
 10
13.99518321325308
 20
469.5544338964758
 30
0.0
 10
13.80396800218704
 20
469.3370615980082
 30
0.0
 10
13.59942815014194
 20
469.0894134011186
 30
0.0
 10
13.40456366168326
 20
468.8344079772536
 30
0.0
 10
13.23874206493521
 20
468.5984086642692
 30
0.0
 10
13.12348690970146
 20
468.4211750506994
 30
0.0
 10
13.04747760160458
 20
468.2975529073966
 30
0.0
 10
12.992207817673
 20
468.2043827451141
 30
0.0
 10
12.92987882906223
 20
468.0952720463679
 30
0.0
 10
12.85073587415633
 20
467.9491372758389
 30
0.0
 10
12.75420636343302
 20
467.7563530526041
 30
0.0
 10
12.64641973153475
 20
467.5158215587143
 30
0.0
 10
12.53487416109694
 20
467.2252538566549
 30
0.0
 10
12.43011206713699
 20
466.8851917688138
 30
0.0
 10
12.33968152263794
 20
466.482697914376
 30
0.0
 10
12.31067857838713
 20
466.2197142736733
 30
0.0
 10
12.2935199400934
 20
466.0539752355548
 30
0.0
  0
LINE
  5
15B
330
5E
100
AcDbEntity
  8
$DDT_AUDIT_GENERATED_(14C)
  6
Continuous
 62
     7
100
AcDbLine
 10
20.3292928836
 20
473.7980171052
 30
0.0
 11
20.2381179746
 21
473.7819024834
 31
0.0
  0
LINE
  5
15C
330
5E
100
AcDbEntity
  8
$DDT_AUDIT_GENERATED_(14C)
  6
Continuous
 62
     7
100
AcDbLine
 10
12.2756618612
 20
465.9396557567
 30
0.0
 11
12.2659312317
 21
465.7728501611
 31
0.0
  0
ARC
  5
15D
330
5E
100
AcDbEntity
  8
$DDT_AUDIT_GENERATED_(14C)
  6
Continuous
 62
     7
100
AcDbCircle
 10
34.8052370469
 20
492.2154074607
 30
0.0
 40
31.18357903496011
100
AcDbArc
 50
246.9518599102
 51
293.038750789
  0
ARC
  5
15E
330
5E
100
AcDbEntity
  8
$DDT_AUDIT_GENERATED_(14C)
  6
Continuous
 62
     7
100
AcDbCircle
 10
23.0557725989
 20
464.6294854177
 30
0.0
 40
1.199999999999997
100
AcDbArc
 50
190.8356550888
 51
246.6295345604
  0
SPLINE
  5
15F
330
5E
100
AcDbEntity
  8
$DDT_AUDIT_GENERATED_(14C)
  6
Continuous
 62
     7
100
AcDbSpline
210
0.0
220
0.0
230
1.0
 70
     8
 71
     3
 72
    86
 73
    82
 74
     0
 42
0.0000000001980813
 43
0.0000000001
 40
0.0160944389941428
 40
0.0160944389941428
 40
0.0160944389941428
 40
0.0160944389941428
 40
0.0181593575647973
 40
0.0292446730291795
 40
0.0397443389589034
 40
0.0508552665350329
 40
0.0615462014285279
 40
0.0738853777694302
 40
0.0865497431693012
 40
0.0996778140239753
 40
0.1132575655581692
 40
0.1273251202959982
 40
0.1419330576371622
 40
0.1551897328815779
 40
0.1691851784618317
 40
0.1830617000038908
 40
0.1968061029425281
 40
0.2104094812306391
 40
0.22386524837588
 40
0.2371692972041563
 40
0.2503200928134673
 40
0.2633186946760475
 40
0.2761687175370137
 40
0.2888762433582243
 40
0.3014496967014235
 40
0.3138996949231581
 40
0.3262296483711448
 40
0.338483968733463
 40
0.3509906145926797
 40
0.3636892914766768
 40
0.376624465109048
 40
0.3898410138189661
 40
0.403385660325389
 40
0.4172911440557386
 40
0.4310207254940254
 40
0.4443726436464306
 40
0.4575302413134947
 40
0.4705346871378536
 40
0.4834259620890168
 40
0.4962434868917348
 40
0.5090046584418737
 40
0.5217175743971519
 40
0.5345333350209042
 40
0.5474612600870525
 40
0.5604944261305216
 40
0.5736233830147179
 40
0.5868361464227771
 40
0.6001381583512183
 40
0.6134140231603643
 40
0.6265446706892877
 40
0.6394927336659563
 40
0.6522280824844554
 40
0.6647285116185488
 40
0.6769795429901141
 40
0.6890018779041049
 40
0.70131270528864
 40
0.714172725685338
 40
0.7274714074217289
 40
0.7412339475398697
 40
0.7554787258759377
 40
0.7702220274752657
 40
0.7829838962163754
 40
0.7964765738994471
 40
0.809986096851626
 40
0.823486266023992
 40
0.8369540886744576
 40
0.8503723329910075
 40
0.8637237396415987
 40
0.8770332536867568
 40
0.8910435052482621
 40
0.9054519480688097
 40
0.9171747220404503
 40
0.9279624905626289
 40
0.9376828791502688
 40
0.9447365188140939
 40
0.9524320937088582
 40
0.9603385066536378
 40
0.972059059206814
 40
0.9844883833316302
 40
0.9984112071188808
 40
1.0
 40
1.0
 40
1.0
 40
1.0
 10
11.23238664501285
 20
434.3613976255197
 30
0.0
 10
11.2357223854771
 20
434.3491509462697
 30
0.0
 10
11.25802418405197
 20
434.2710713225343
 30
0.0
 10
11.30937131967606
 20
434.1323593976957
 30
0.0
 10
11.41604848602518
 20
433.9405845937666
 30
0.0
 10
11.56159540048513
 20
433.7553506625225
 30
0.0
 10
11.74775117292471
 20
433.5747411669799
 30
0.0
 10
11.97567564280654
 20
433.3924210128116
 30
0.0
 10
12.25496410997685
 20
433.2046057381918
 30
0.0
 10
12.57873168710718
 20
433.0159011892642
 30
0.0
 10
12.94887250756712
 20
432.8251692424381
 30
0.0
 10
13.3670981066321
 20
432.6317775264649
 30
0.0
 10
13.81263455227796
 20
432.4438389451414
 30
0.0
 10
14.29109426670496
 20
432.2593271414229
 30
0.0
 10
14.79479194146832
 20
432.0823922889278
 30
0.0
 10
15.33868605708392
 20
431.9077715974632
 30
0.0
 10
15.91097148137628
 20
431.7394839240003
 30
0.0
 10
16.51002791821939
 20
431.5777833928927
 30
0.0
 10
17.13429823893949
 20
431.4229190153991
 30
0.0
 10
17.78224066691487
 20
431.2751021323843
 30
0.0
 10
18.45236246623566
 20
431.1345141343764
 30
0.0
 10
19.14323600199308
 20
431.0013035352945
 30
0.0
 10
19.85351718257409
 20
430.8755885800232
 30
0.0
 10
20.58195281025603
 20
430.7574574335125
 30
0.0
 10
21.32740947634138
 20
430.646979251202
 30
0.0
 10
22.0886206686261
 20
430.5442048490494
 30
0.0
 10
22.86524259966799
 20
430.4491657272231
 30
0.0
 10
23.6625075363186
 20
430.3607099982488
 30
0.0
 10
24.48559830267637
 20
430.278179920356
 30
0.0
 10
25.34018642615897
 20
430.2011231456565
 30
0.0
 10
26.22574804675419
 20
430.1297087829832
 30
0.0
 10
27.14419035387769
 20
430.0638924857291
 30
0.0
 10
28.09728573817927
 20
430.0037319832408
 30
0.0
 10
29.07286353635056
 20
429.9498582880861
 30
0.0
 10
30.05396179550225
 20
429.9041035371611
 30
0.0
 10
31.0255674065566
 20
429.8671186299854
 30
0.0
 10
31.98638469842743
 20
429.8387259727718
 30
0.0
 10
32.94105843906619
 20
429.8186400964575
 30
0.0
 10
33.89079049202565
 20
429.8067426399986
 30
0.0
 10
34.8362208577701
 20
429.8029474474073
 30
0.0
 10
35.77721423413476
 20
429.8071994013936
 30
0.0
 10
36.71642836010101
 20
429.8193389581503
 30
0.0
 10
37.6564055755314
 20
429.8392992797697
 30
0.0
 10
38.59928711047051
 20
429.8671623371011
 30
0.0
 10
39.54327951382351
 20
429.9029474567633
 30
0.0
 10
40.48608121425524
 20
429.9466416885732
 30
0.0
 10
41.42569641938214
 20
429.9982248822932
 30
0.0
 10
42.35764983156042
 20
430.0575202946431
 30
0.0
 10
43.27477055168747
 20
430.1242715427796
 30
0.0
 10
44.16918155427327
 20
430.1979326664983
 30
0.0
 10
45.03519702789509
 20
430.2779754052964
 30
0.0
 10
45.86946314045139
 20
430.363986361215
 30
0.0
 10
46.66925661091988
 20
430.4555399382162
 30
0.0
 10
47.43295873487821
 20
430.5523539338014
 30
0.0
 10
48.17010420434109
 20
430.6554545719728
 30
0.0
 10
48.89780445047799
 20
430.7662223403664
 30
0.0
 10
49.62730692254175
 20
430.8866574960793
 30
0.0
 10
50.35997168960208
 20
431.0173317580795
 30
0.0
 10
51.09283176276718
 20
431.1580103272834
 30
0.0
 10
51.82474887065625
 20
431.3089840030677
 30
0.0
 10
52.515497409153
 20
431.4609130873467
 30
0.0
 10
53.16610979284182
 20
431.6154200468521
 30
0.0
 10
53.76691620804208
 20
431.770283515294
 30
0.0
 10
54.34731255339526
 20
431.9329789871907
 30
0.0
 10
54.89455307183658
 20
432.1003717619652
 30
0.0
 10
55.40685676086507
 20
432.2720111842721
 30
0.0
 10
55.8829486569556
 20
432.4475028064924
 30
0.0
 10
56.321116274156
 20
432.6266983752409
 30
0.0
 10
56.73180026504735
 20
432.8120599901321
 30
0.0
 10
57.11882869636312
 20
433.0061391992995
 30
0.0
 10
57.45955484046196
 20
433.1952831398615
 30
0.0
 10
57.74510856649614
 20
433.3762499495189
 30
0.0
 10
57.96340699968047
 20
433.5417464971538
 30
0.0
 10
58.12172646198297
 20
433.6916271949536
 30
0.0
 10
58.24091511038458
 20
433.8400403701167
 30
0.0
 10
58.31867603090579
 20
433.9794528469029
 30
0.0
 10
58.38699851040685
 20
434.1378498449882
 30
0.0
 10
58.44037313812685
 20
434.3277787250955
 30
0.0
 10
58.46832879065101
 20
434.5427903355412
 30
0.0
 10
58.47299402096533
 20
434.7035893839007
 30
0.0
 10
58.46874009497264
 20
434.7790014296144
 30
0.0
 10
58.46821894104733
 20
434.7879850332309
 30
0.0
  0
LINE
  5
160
330
5E
100
AcDbEntity
  8
$DDT_AUDIT_GENERATED_(14C)
  6
Continuous
 62
     7
100
AcDbLine
 10
11.1822047925
 20
435.0421479577
 30
0.0
 11
11.1728676819
 21
434.6507594
 31
0.0
  0
ELLIPSE
  5
162
330
5E
100
AcDbEntity
  8
$DDT_AUDIT_GENERATED_(161)
  6
Continuous
 62
     7
100
AcDbEllipse
 10
34.812553639
 20
443.2444692043
 30
0.0
 11
3.35000000000001
 21
2.220446049250313E-13
 31
0.0
210
0.0
220
0.0
230
1.0
 40
0.9802403381
 41
5.52094024317574
 42
6.283185307179586
  0
ELLIPSE
  5
163
330
5E
100
AcDbEntity
  8
$DDT_AUDIT_GENERATED_(161)
  6
Continuous
 62
     7
100
AcDbEllipse
 10
34.812553639
 20
443.2444692043
 30
0.0
 11
3.35000000000001
 21
2.220446049250313E-13
 31
0.0
210
0.0
220
0.0
230
1.0
 40
0.9802403381
 41
0.0
 42
3.872960267280873
  0
LINE
  5
164
330
5E
100
AcDbEntity
  8
$DDT_AUDIT_GENERATED_(161)
  6
Continuous
 62
     7
100
AcDbLine
 10
31.462553639
 20
443.4883785897
 30
0.0
 11
31.462553639
 21
443.2444692043
 31
0.0
  0
LINE
  5
165
330
5E
100
AcDbEntity
  8
$DDT_AUDIT_GENERATED_(161)
  6
Continuous
 62
     7
100
AcDbLine
 10
38.162553639
 20
443.2444692043
 30
0.0
 11
38.162553639
 21
443.4883785897
 31
0.0
  0
LINE
  5
168
330
5E
100
AcDbEntity
  8
DV1_Default
  6
CENTER2
 62
     7
100
AcDbLine
 10
54.8125559776
 20
306.468672453
 30
0.0
 11
14.8125568716
 21
306.468672453
 31
0.0
  0
LINE
  5
169
330
5E
100
AcDbEntity
  8
DV1_Default
  6
CENTER2
 62
     7
100
AcDbLine
 10
34.8125564246
 20
326.468672006
 30
0.0
 11
34.8125564246
 21
286.4686729001
 31
0.0
  0
ENDBLK
  5
16B
330
5E
100
AcDbEntity
  8
0
100
AcDbBlockEnd
  0
BLOCK
  5
1B3
330
16C
100
AcDbEntity
  8
0
100
AcDbBlockBegin
  2
SE1
 70
     0
 10
0.0
 20
0.0
 30
0.0
  3
SE1
  1

  0
ARC
  5
16E
330
16C
100
AcDbEntity
  8
$DDT_AUDIT_GENERATED_(60)
  6
Continuous
 62
     7
100
AcDbCircle
 10
145.039246538
 20
-7807.8122947916
 30
0.0
 40
8114.348771792507
100
AcDbArc
 50
89.829091374
 51
90.170908626
  0
ARC
  5
16F
330
16C
100
AcDbEntity
  8
$DDT_AUDIT_GENERATED_(60)
  6
Continuous
 62
     7
100
AcDbCircle
 10
-183.7495169102
 20
-1452.9201784931
 30
0.0
 40
1916.301781350879
100
AcDbArc
 50
79.4536281992
 51
80.0693729245
  0
LINE
  5
170
330
16C
100
AcDbEntity
  8
$DDT_AUDIT_GENERATED_(60)
  6
Continuous
 62
     7
100
AcDbLine
 10
166.9944370193
 20
431.01449226
 30
0.0
 11
166.989676393
 21
430.9875546085
 31
0.0
  0
LINE
  5
171
330
16C
100
AcDbEntity
  8
$DDT_AUDIT_GENERATED_(60)
  6
Continuous
 62
     7
100
AcDbLine
 10
166.990076467
 20
430.9897109173
 30
0.0
 11
166.9937188975
 21
431.0103681673
 31
0.0
  0
LINE
  5
172
330
16C
100
AcDbEntity
  8
$DDT_AUDIT_GENERATED_(60)
  6
Continuous
 62
     7
100
AcDbLine
 10
166.9937207754
 20
431.0103771006
 30
0.0
 11
166.9991114391
 21
431.0409501038
 31
0.0
  0
LINE
  5
173
330
16C
100
AcDbEntity
  8
$DDT_AUDIT_GENERATED_(60)
  6
Continuous
 62
     7
100
AcDbLine
 10
167.0008222283
 20
431.0506531576
 30
0.0
 11
166.9991077256
 21
431.0409297301
 31
0.0
  0
LINE
  5
174
330
16C
100
AcDbEntity
  8
$DDT_AUDIT_GENERATED_(60)
  6
Continuous
 62
     7
100
AcDbLine
 10
166.9962944573
 20
431.0249748928
 30
0.0
 11
166.9946058533
 21
431.0153983434
 31
0.0
  0
ARC
  5
175
330
16C
100
AcDbEntity
  8
$DDT_AUDIT_GENERATED_(60)
  6
Continuous
 62
     7
100
AcDbCircle
 10
292.5240137774
 20
1116.9780812624
 30
0.0
 40
697.3181533531608
100
AcDbArc
 50
259.6297411269
 51
261.2328627597
  0
ARC
  5
176
330
16C
100
AcDbEntity
  8
$DDT_AUDIT_GENERATED_(60)
  6
Continuous
 62
     7
100
AcDbCircle
 10
20.6192379601
 20
362.6233141705
 30
0.0
 40
109.1798113198733
100
AcDbArc
 50
346.0212899313
 51
352.1709434461
  0
ARC
  5
177
330
16C
100
AcDbEntity
  8
$DDT_AUDIT_GENERATED_(60)
  6
Continuous
 62
     7
100
AcDbCircle
 10
293.4811067367
 20
324.9516612582
 30
0.0
 40
82.07541194432157
100
AcDbArc
 50
112.3540516155
 51
129.5227961269
  0
LINE
  5
178
330
16C
100
AcDbEntity
  8
$DDT_AUDIT_GENERATED_(60)
  6
Continuous
 62
     7
100
AcDbLine
 10
147.5851236575
 20
434.519526186
 30
0.0
 11
146.7288060522
 21
434.6699817344
 31
0.0
  0
ARC
  5
179
330
16C
100
AcDbEntity
  8
$DDT_AUDIT_GENERATED_(60)
  6
Continuous
 62
     7
100
AcDbCircle
 10
146.5198524269
 20
433.488307926
 30
0.0
 40
1.199999990542403
100
AcDbArc
 50
80.0321060744
 51
169.096117739
  0
ARC
  5
17A
330
16C
100
AcDbEntity
  8
$DDT_AUDIT_GENERATED_(60)
  6
Continuous
 62
     7
100
AcDbCircle
 10
-1731.4927043149
 20
3030.8068582602
 30
0.0
 40
3300.257111602705
100
AcDbArc
 50
307.1656521184
 51
307.2606567348
  0
LINE
  5
17B
330
16C
100
AcDbEntity
  8
$DDT_AUDIT_GENERATED_(60)
  6
Continuous
 62
     7
100
AcDbLine
 10
239.507323428
 20
387.4102142928
 30
0.0
 11
241.2659491297
 21
388.3054327312
 31
0.0
  0
SPLINE
  5
17C
330
16C
100
AcDbEntity
  8
$DDT_AUDIT_GENERATED_(60)
  6
Continuous
 62
     7
100
AcDbSpline
210
0.0
220
0.0
230
1.0
 70
     8
 71
     3
 72
    30
 73
    26
 74
     0
 42
0.0000000001210748
 43
0.0000000001
 40
0.0
 40
0.0
 40
0.0
 40
0.0
 40
0.0704766094798223
 40
0.146187066397021
 40
0.2146206401276576
 40
0.2764394851169544
 40
0.332252097888841
 40
0.382616560711516
 40
0.428043671998982
 40
0.4689999633685688
 40
0.5262772416215545
 40
0.5747252108733009
 40
0.6156589331846659
 40
0.6501939342344916
 40
0.6792776709099223
 40
0.7501229289370349
 40
0.8213559697352848
 40
0.8353766124171542
 40
0.8508317684951437
 40
0.8694105414973955
 40
0.8931708457581283
 40
0.9245737334131572
 40
0.949350660748855
 40
0.9790372259831281
 40
1.0
 40
1.0
 40
1.0
 40
1.0
 10
266.1344884224105
 20
406.1242241811304
 30
0.0
 10
264.1224476871437
 20
406.8361780709035
 30
0.0
 10
260.6025000181172
 20
408.0798622600128
 30
0.0
 10
254.90173959015
 20
410.0457980854662
 30
0.0
 10
249.5579403560234
 20
411.8515279737597
 30
0.0
 10
244.6876684228511
 20
413.4610395956097
 30
0.0
 10
240.2879538111886
 20
414.8820359902472
 30
0.0
 10
236.3071237868174
 20
416.1376085365458
 30
0.0
 10
232.708999083269
 20
417.2450605582296
 30
0.0
 10
228.9208537830218
 20
418.3820970131814
 30
0.0
 10
225.042950631432
 20
419.5089537717352
 30
0.0
 10
221.1534067570962
 20
420.5926416702651
 30
0.0
 10
217.8573249083735
 20
421.4727465613498
 30
0.0
 10
215.0687872645344
 20
422.186542270913
 30
0.0
 10
211.4737554982281
 20
423.0695952493531
 30
0.0
 10
206.8789858849767
 20
424.1177563809651
 30
0.0
 10
202.6625465112658
 20
424.951488820814
 30
0.0
 10
199.9352949976718
 20
425.4508002324214
 30
0.0
 10
198.6328267697318
 20
425.6826765150651
 30
0.0
 10
197.0651752701063
 20
425.9557483531855
 30
0.0
 10
195.0652192731825
 20
426.2999196387984
 30
0.0
 10
192.8922808196027
 20
426.6722421312372
 30
0.0
 10
190.5748606377264
 20
427.0694310154465
 30
0.0
 10
188.4806476384579
 20
427.4286874909268
 30
0.0
 10
187.2013879307043
 20
427.6486565473222
 30
0.0
 10
186.5757416905168
 20
427.7562425901471
 30
0.0
  0
ARC
  5
17D
330
16C
100
AcDbEntity
  8
$DDT_AUDIT_GENERATED_(60)
  6
Continuous
 62
     7
100
AcDbCircle
 10
169.812082982
 20
130.5518372896
 30
0.0
 40
265.9382101262964
100
AcDbArc
 50
74.9521391122
 51
85.6480457553
  0
ARC
  5
17E
330
16C
100
AcDbEntity
  8
$DDT_AUDIT_GENERATED_(60)
  6
Continuous
 62
     7
100
AcDbCircle
 10
265.7352090324
 20
404.9956140279
 30
0.0
 40
1.199999998976019
100
AcDbArc
 50
308.4037485713
 51
70.4795028363
  0
ARC
  5
17F
330
16C
100
AcDbEntity
  8
$DDT_AUDIT_GENERATED_(60)
  6
Continuous
 62
     7
100
AcDbCircle
 10
239.168258064
 20
388.5851496395
 30
0.0
 40
1.20552679172457
100
AcDbArc
 50
255.5534640856
 51
295.6985134061
  0
ARC
  5
180
330
16C
100
AcDbEntity
  8
$DDT_AUDIT_GENERATED_(60)
  6
Continuous
 62
     7
100
AcDbCircle
 10
189.4536303602
 20
388.7728449749
 30
0.0
 40
7.000001727637954
100
AcDbArc
 50
85.5177258434
 51
170.9382879248
  0
LINE
  5
181
330
16C
100
AcDbEntity
  8
$DDT_AUDIT_GENERATED_(60)
  6
Continuous
 62
     7
100
AcDbLine
 10
169.2436325836
 20
306.5002505642
 30
0.0
 11
182.541519867
 21
389.8786257889
 31
0.0
  0
LINE
  5
182
330
16C
100
AcDbEntity
  8
$DDT_AUDIT_GENERATED_(60)
  6
Continuous
 62
     7
100
AcDbLine
 10
126.5657494876
 20
336.2496929742
 30
0.0
 11
120.8348434439
 21
306.5003770963
 31
0.0
  0
LINE
  5
183
330
16C
100
AcDbEntity
  8
$DDT_AUDIT_GENERATED_(60)
  6
Continuous
 62
     7
100
AcDbLine
 10
145.3415253828
 20
433.715343904
 30
0.0
 11
128.7813576689
 21
347.7509856399
 31
0.0
  0
ARC
  5
184
330
16C
100
AcDbEntity
  8
$DDT_AUDIT_GENERATED_(77)
  6
Continuous
 62
     7
100
AcDbCircle
 10
165.4825173965
 20
422.2941418868
 30
0.0
 40
22.6
100
AcDbArc
 50
14.7438595643
 51
21.6664424836
  0
ARC
  5
185
330
16C
100
AcDbEntity
  8
$DDT_AUDIT_GENERATED_(77)
  6
Continuous
 62
     7
100
AcDbCircle
 10
165.4825173965
 20
422.2941418868
 30
0.0
 40
22.59999999999999
100
AcDbArc
 50
135.4262085981
 51
145.2561404357
  0
ARC
  5
186
330
16C
100
AcDbEntity
  8
$DDT_AUDIT_GENERATED_(77)
  6
Continuous
 62
     7
100
AcDbCircle
 10
147.158428545
 20
435.0031059581
 30
0.0
 40
0.300000000000007
100
AcDbArc
 50
145.2561404357
 51
260.0
  0
ARC
  5
187
330
16C
100
AcDbEntity
  8
$DDT_AUDIT_GENERATED_(77)
  6
Continuous
 62
     7
100
AcDbCircle
 10
187.048250186
 20
427.9694541471
 30
0.0
 40
0.299999999999996
100
AcDbArc
 50
260.0
 51
14.7438595643
  0
LINE
  5
188
330
16C
100
AcDbEntity
  8
$DDT_AUDIT_GENERATED_(7C)
  6
Continuous
 62
     7
100
AcDbLine
 10
263.8634502898
 20
395.0121775064
 30
0.0
 11
245.3135193507
 21
384.3023698853
 31
0.0
  0
ELLIPSE
  5
189
330
16C
100
AcDbEntity
  8
$DDT_AUDIT_GENERATED_(7C)
  6
Continuous
 62
     7
100
AcDbEllipse
 10
255.8566944224
 20
387.4606702303
 30
0.0
 11
10.33601319416733
 21
5.967500000000041
 31
0.0
210
0.0
220
0.0
230
0.9999999999999999
 40
0.5773502692
 41
1.166970237634118
 42
1.974622415955677
  0
LINE
  5
18A
330
16C
100
AcDbEntity
  8
$DDT_AUDIT_GENERATED_(7C)
  6
Continuous
 62
     7
100
AcDbLine
 10
248.6270565001
 20
390.6033034963
 30
0.0
 11
250.1416751954
 21
387.9799069619
 31
0.0
  0
LINE
  5
18B
330
16C
100
AcDbEntity
  8
$DDT_AUDIT_GENERATED_(7C)
  6
Continuous
 62
     7
100
AcDbLine
 10
258.2645318358
 20
392.6696404298
 30
0.0
 11
256.7499131404
 21
395.2930369642
 31
0.0
  0
SPLINE
  5
18C
330
16C
100
AcDbEntity
  8
$DDT_AUDIT_GENERATED_(7C)
  6
Continuous
 62
     7
100
AcDbSpline
210
0.0
220
0.0
230
1.0
 70
     8
 71
     3
 72
    12
 73
     8
 74
     0
 42
0.0000000398432805
 43
0.0000000001
 40
0.0
 40
0.0
 40
0.0
 40
0.0
 40
0.5
 40
0.5
 40
0.75
 40
0.75
 40
1.0
 40
1.0
 40
1.0
 40
1.0
 10
258.161220103998
 20
392.4599933736885
 30
0.0
 10
258.1916082878461
 20
392.4876871929981
 30
0.0
 10
258.2203633869851
 20
392.518179061978
 30
0.0
 10
258.2538143625218
 20
392.5701284041677
 30
0.0
 10
258.2635712743049
 20
392.5887837815669
 30
0.0
 10
258.2744471272716
 20
392.6290108177829
 30
0.0
 10
258.2750138494681
 20
392.6514850495359
 30
0.0
 10
258.2645318357653
 20
392.6696404298348
 30
0.0
  0
SPLINE
  5
18D
330
16C
100
AcDbEntity
  8
$DDT_AUDIT_GENERATED_(7C)
  6
Continuous
 62
     7
100
AcDbSpline
210
0.0
220
0.0
230
1.0
 70
     8
 71
     3
 72
    12
 73
     8
 74
     0
 42
0.0000000398474798
 43
0.0000000001
 40
0.0
 40
0.0
 40
0.0
 40
0.0
 40
0.25
 40
0.25
 40
0.5
 40
0.5
 40
1.0
 40
1.0
 40
1.0
 40
1.0
 10
250.1416751953955
 20
387.9799069619285
 30
0.0
 10
250.1520731756149
 20
387.9618971318924
 30
0.0
 10
250.1717030406405
 20
387.9511223638427
 30
0.0
 10
250.211620180771
 20
387.9403964152968
 30
0.0
 10
250.2327689111664
 20
387.9394346402213
 30
0.0
 10
250.2947908788579
 20
387.9423738091097
 30
0.0
 10
250.3356113297353
 20
387.9520515972911
 30
0.0
 10
250.3748907377533
 20
387.9645540180769
 30
0.0
  0
SPLINE
  5
18E
330
16C
100
AcDbEntity
  8
$DDT_AUDIT_GENERATED_(7C)
  6
Continuous
 62
     7
100
AcDbSpline
210
0.0
220
0.0
230
1.0
 70
     8
 71
     3
 72
    14
 73
    10
 74
     0
 42
0.0000000011024152
 43
0.0000000001
 40
0.0
 40
0.0
 40
0.0
 40
0.0
 40
0.25
 40
0.25
 40
0.5
 40
0.5
 40
0.75
 40
0.75
 40
1.0
 40
1.0
 40
1.0
 40
1.0
 10
250.3748907377533
 20
387.9645540180769
 30
0.0
 10
251.0951511973253
 20
388.1938089839284
 30
0.0
 10
251.8113926636625
 20
388.4574064054501
 30
0.0
 10
253.1968948591537
 20
389.0561358222726
 30
0.0
 10
253.8697816871567
 20
389.3924478239048
 30
0.0
 10
255.1728349491972
 20
390.1445312255167
 30
0.0
 10
255.8029922583551
 20
390.5603195976583
 30
0.0
 10
257.0227176084157
 20
391.4673918731278
 30
0.0
 10
257.6048182780935
 20
391.9529248464209
 30
0.0
 10
258.161220103998
 20
392.4599933736885
 30
0.0
  0
LINE
  5
18F
330
16C
100
AcDbEntity
  8
$DDT_AUDIT_GENERATED_(7C)
  6
Continuous
 62
     7
100
AcDbLine
 10
256.7499131404
 20
395.2930369642
 30
0.0
 11
248.6270565001
 21
390.6033034963
 31
0.0
  0
LINE
  5
190
330
16C
100
AcDbEntity
  8
$DDT_AUDIT_GENERATED_(7C)
  6
Continuous
 62
     7
100
AcDbLine
 10
241.4935767726
 20
388.4683197549
 30
0.0
 11
243.8670903214
 21
384.3572736959
 31
0.0
  0
LINE
  5
191
330
16C
100
AcDbEntity
  8
$DDT_AUDIT_GENERATED_(7C)
  6
Continuous
 62
     7
100
AcDbLine
 10
264.5391167097
 20
396.2922736959
 30
0.0
 11
261.977215466
 21
400.729616814
 31
0.0
  0
ARC
  5
192
330
16C
100
AcDbEntity
  8
$DDT_AUDIT_GENERATED_(7C)
  6
Continuous
 62
     7
100
AcDbCircle
 10
243.996994132
 20
384.4322736959
 30
0.0
 40
0.1499999999999988
100
AcDbArc
 50
210.0
 51
270.0
  0
LINE
  5
193
330
16C
100
AcDbEntity
  8
$DDT_AUDIT_GENERATED_(7C)
  6
Continuous
 62
     7
100
AcDbLine
 10
243.996994132
 20
384.2822736959
 30
0.0
 11
245.2385193507
 21
384.2822736959
 31
0.0
  0
LINE
  5
194
330
16C
100
AcDbEntity
  8
$DDT_AUDIT_GENERATED_(7C)
  6
Continuous
 62
     7
100
AcDbLine
 10
263.9183541004
 20
395.067081317
 30
0.0
 11
264.5391167097
 21
396.1422736959
 31
0.0
  0
ARC
  5
195
330
16C
100
AcDbEntity
  8
$DDT_AUDIT_GENERATED_(7C)
  6
Continuous
 62
     7
100
AcDbCircle
 10
245.2385193507
 20
384.4322736959
 30
0.0
 40
0.1499999999999974
100
AcDbArc
 50
270.0
 51
300.0
  0
ARC
  5
196
330
16C
100
AcDbEntity
  8
$DDT_AUDIT_GENERATED_(7C)
  6
Continuous
 62
     7
100
AcDbCircle
 10
263.7884502898
 20
395.142081317
 30
0.0
 40
0.1500000000000058
100
AcDbArc
 50
300.0
 51
330.0
  0
ARC
  5
197
330
16C
100
AcDbEntity
  8
$DDT_AUDIT_GENERATED_(7C)
  6
Continuous
 62
     7
100
AcDbCircle
 10
264.4092128992
 20
396.2172736959
 30
0.0
 40
0.1500000000000058
100
AcDbArc
 50
330.0
 51
30.0
  0
LINE
  5
198
330
16C
100
AcDbEntity
  8
$DDT_AUDIT_GENERATED_(8B)
  6
Continuous
 62
     7
100
AcDbLine
 10
262.5577134543
 20
393.8541648046
 30
0.0
 11
246.9692561862
 21
384.8541648046
 31
0.0
  0
LINE
  5
199
330
16C
100
AcDbEntity
  8
$DDT_AUDIT_GENERATED_(8B)
  6
Continuous
 62
     7
100
AcDbLine
 10
246.7942561862
 20
385.1572736959
 30
0.0
 11
246.9692561862
 21
384.8541648046
 31
0.0
  0
LINE
  5
19A
330
16C
100
AcDbEntity
  8
$DDT_AUDIT_GENERATED_(8B)
  6
Continuous
 62
     7
100
AcDbLine
 10
262.5577134543
 20
393.8541648046
 30
0.0
 11
262.3827134543
 21
394.1572736959
 31
0.0
  0
LINE
  5
19B
330
16C
100
AcDbEntity
  8
$DDT_AUDIT_GENERATED_(14C)
  6
Continuous
 62
     7
100
AcDbLine
 10
167.4320034515
 20
434.4573170747
 30
0.0
 11
144.5973291543
 21
439.103084067
 31
0.0
  0
LINE
  5
19C
330
16C
100
AcDbEntity
  8
$DDT_AUDIT_GENERATED_(14C)
  6
Continuous
 62
     7
100
AcDbLine
 10
167.4320034515
 20
434.4573170747
 30
0.0
 11
190.2776621107
 21
429.8093152886
 31
0.0
  0
ARC
  5
19D
330
16C
100
AcDbEntity
  8
$DDT_AUDIT_GENERATED_(14C)
  6
Continuous
 62
     7
100
AcDbCircle
 10
214.0694965215
 20
438.6991576406
 30
0.0
 40
21.57578750964629
100
AcDbArc
 50
162.6172835359
 51
177.0525297476
  0
SPLINE
  5
19E
330
16C
100
AcDbEntity
  8
$DDT_AUDIT_GENERATED_(14C)
  6
Continuous
 62
     7
100
AcDbSpline
210
0.0
220
0.0
230
1.0
 70
     8
 71
     3
 72
    29
 73
    25
 74
     0
 42
0.0000000000831087
 43
0.0000000001
 40
0.0
 40
0.0
 40
0.0
 40
0.0
 40
0.0607222669899326
 40
0.1256290220892925
 40
0.1866451617926219
 40
0.2426936711122546
 40
0.293037676661995
 40
0.3282680714418981
 40
0.3595149010454812
 40
0.386670304714587
 40
0.4104092491638822
 40
0.4366684562677629
 40
0.4711442732494459
 40
0.5105544758356374
 40
0.5548871049827272
 40
0.6041205777019086
 40
0.658238602383485
 40
0.7070819585946587
 40
0.7593807337101948
 40
0.8152541279455751
 40
0.8596402690645041
 40
0.9063107453339884
 40
0.9554761971225718
 40
1.0
 40
1.0
 40
1.0
 40
1.0
 10
264.2375669409132
 20
465.60696057145
 30
0.0
 10
261.691586599903
 20
466.4372043389283
 30
0.0
 10
257.2447939885221
 20
467.8739229873242
 30
0.0
 10
249.8665729490461
 20
469.8509894703911
 30
0.0
 10
242.7905873558824
 20
471.467662189296
 30
0.0
 10
236.1853317326868
 20
472.7178012753059
 30
0.0
 10
230.5735181598328
 20
473.5760537266852
 30
0.0
 10
225.9239144780134
 20
474.1462422159047
 30
0.0
 10
222.1877398140663
 20
474.5136126140738
 30
0.0
 10
218.9038213461554
 20
474.7641764530619
 30
0.0
 10
215.8153290080607
 20
474.9387300331583
 30
0.0
 10
212.4306000136777
 20
475.0623874074022
 30
0.0
 10
208.4152565164661
 20
475.1083647702935
 30
0.0
 10
203.675660114007
 20
475.0112060395524
 30
0.0
 10
198.3520045485401
 20
474.6981576424979
 30
0.0
 10
192.4608068753437
 20
474.0820482348703
 30
0.0
 10
186.4314137384528
 20
473.1212935709288
 30
0.0
 10
180.3479788701205
 20
471.7883021255398
 30
0.0
 10
174.2864253796011
 20
470.071227411052
 30
0.0
 10
168.5266303948412
 20
468.0043343906656
 30
0.0
 10
163.1169988007364
 20
465.6434802179207
 30
0.0
 10
158.1412360133181
 20
463.085276864716
 30
0.0
 10
153.2059805162465
 20
460.1346850610311
 30
0.0
 10
150.3810018189015
 20
458.088098034672
 30
0.0
 10
148.7961565760997
 20
456.9288622898162
 30
0.0
  0
ARC
  5
19F
330
16C
100
AcDbEntity
  8
$DDT_AUDIT_GENERATED_(14C)
  6
Continuous
 62
     7
100
AcDbCircle
 10
263.9133069214
 20
464.4663270599
 30
0.0
 40
1.200110536529762
100
AcDbArc
 50
287.3071022835
 51
72.1464281824
  0
LINE
  5
1A0
330
16C
100
AcDbEntity
  8
$DDT_AUDIT_GENERATED_(14C)
  6
Continuous
 62
     7
100
AcDbLine
 10
257.264193277
 20
461.1199477082
 30
0.0
 11
264.2018920878
 21
463.300699949
 31
0.0
  0
ARC
  5
1A1
330
16C
100
AcDbEntity
  8
$DDT_AUDIT_GENERATED_(14C)
  6
Continuous
 62
     7
100
AcDbCircle
 10
1458.5993634416
 20
142.2225835311
 30
0.0
 40
1347.377965838934
100
AcDbArc
 50
166.5215103538
 51
167.2578210362
  0
ARC
  5
1A2
330
16C
100
AcDbEntity
  8
$DDT_AUDIT_GENERATED_(14C)
  6
Continuous
 62
     7
100
AcDbCircle
 10
149.498793924
 20
455.9841887041
 30
0.0
 40
1.205660865880373
100
AcDbArc
 50
126.5695293908
 51
166.6035954446
  0
ARC
  5
1A3
330
16C
100
AcDbEntity
  8
$DDT_AUDIT_GENERATED_(14C)
  6
Continuous
 62
     7
100
AcDbCircle
 10
256.8307623694
 20
462.2921436111
 30
0.0
 40
1.249598163735114
100
AcDbArc
 50
254.7386341936
 51
287.0998128988
  0
ARC
  5
1A4
330
16C
100
AcDbEntity
  8
$DDT_AUDIT_GENERATED_(14C)
  6
Continuous
 62
     7
100
AcDbCircle
 10
144.6471538348
 20
439.3480687731
 30
0.0
 40
0.2500000093977528
100
AcDbArc
 50
162.7530907572
 51
258.5019975641
  0
ARC
  5
1A5
330
16C
100
AcDbEntity
  8
$DDT_AUDIT_GENERATED_(14C)
  6
Continuous
 62
     7
100
AcDbCircle
 10
190.3275292628
 20
430.0542913503
 30
0.0
 40
0.2499998903511838
100
AcDbArc
 50
258.5317623397
 51
350.0602119898
  0
SPLINE
  5
1A6
330
16C
100
AcDbEntity
  8
$DDT_AUDIT_GENERATED_(14C)
  6
Continuous
 62
     7
100
AcDbSpline
210
0.0
220
0.0
230
1.0
 70
     8
 71
     3
 72
    34
 73
    30
 74
     0
 42
0.0000000001330744
 43
0.0000000001
 40
0.0
 40
0.0
 40
0.0
 40
0.0
 40
0.0316105724057551
 40
0.0704222759276973
 40
0.1009673677965097
 40
0.1246245023041224
 40
0.1426903694990646
 40
0.1563822010739667
 40
0.1711799453969128
 40
0.1821324919105466
 40
0.2049330569499672
 40
0.2219594003523063
 40
0.2356582708975294
 40
0.2479827014793537
 40
0.2632598309629739
 40
0.2828533226947683
 40
0.3075682591428489
 40
0.3343339562601438
 40
0.3624831517475932
 40
0.3999742729012813
 40
0.4426071903867188
 40
0.4893659250531918
 40
0.5401035816221941
 40
0.5989031510328934
 40
0.6665094905545862
 40
0.7434355275518498
 40
0.8300531782873982
 40
0.9265752524203271
 40
1.0
 40
1.0
 40
1.0
 40
1.0
 10
193.9356073054495
 20
446.440932241163
 30
0.0
 10
194.1226030320588
 20
447.2911588541033
 30
0.0
 10
194.4765831242536
 20
448.8905784026001
 30
0.0
 10
195.0749013804768
 20
451.4045445148687
 30
0.0
 10
195.6514636744773
 20
453.6483067154052
 30
0.0
 10
196.1467372855219
 20
455.391055669518
 30
0.0
 10
196.5717322033947
 20
456.7117964823065
 30
0.0
 10
196.9798674723692
 20
457.8039469355811
 30
0.0
 10
197.3914193984355
 20
458.7038465243724
 30
0.0
 10
198.0123600100874
 20
459.7496927197939
 30
0.0
 10
198.7343296032602
 20
460.7996979375907
 30
0.0
 10
199.6349607741008
 20
461.797785753909
 30
0.0
 10
200.4572386125085
 20
462.4975529423617
 30
0.0
 10
201.2931471386307
 20
463.1067472808676
 30
0.0
 10
202.2838160020364
 20
463.752266414387
 30
0.0
 10
203.6001813465512
 20
464.4591550500488
 30
0.0
 10
205.2514082622633
 20
465.1322511793769
 30
0.0
 10
207.1665185730259
 20
465.6947716397802
 30
0.0
 10
209.4293606252793
 20
466.1855310336563
 30
0.0
 10
212.1214970260335
 20
466.5313777773659
 30
0.0
 10
215.2949048895959
 20
466.708382214904
 30
0.0
 10
218.8039359843941
 20
466.7382977431809
 30
0.0
 10
222.7161630718504
 20
466.6471471021196
 30
0.0
 10
227.1472410751527
 20
466.4409333526534
 30
0.0
 10
232.2184596417767
 20
466.0027004061814
 30
0.0
 10
237.9651154839152
 20
465.2397759050459
 30
0.0
 10
244.3366953337078
 20
464.0862079254109
 30
0.0
 10
250.7467294637271
 20
462.6482876521768
 30
0.0
 10
254.5609435175454
 20
461.5940265098739
 30
0.0
 10
256.5081289328815
 20
461.050079154113
 30
0.0
  0
ARC
  5
1A7
330
16C
100
AcDbEntity
  8
$DDT_AUDIT_GENERATED_(14C)
  6
Continuous
 62
     7
100
AcDbCircle
 10
929.9043082998
 20
287.9854668973
 30
0.0
 40
752.8467786378002
100
AcDbArc
 50
168.3629405703
 51
169.1262496167
  0
LINE
  5
1A8
330
16C
100
AcDbEntity
  8
$DDT_AUDIT_GENERATED_(161)
  6
Continuous
 62
     7
100
AcDbLine
 10
193.978004655
 20
446.5282743369
 30
0.0
 11
192.9299105482
 21
442.9899679308
 31
0.0
  0
LINE
  5
1AA
330
16C
100
AcDbEntity
  8
$DDT_AUDIT_GENERATED_(1A9)
  6
Continuous
 62
     7
100
AcDbLine
 10
128.2490221697
 20
344.3411884357
 30
0.0
 11
124.3421868595
 21
356.3651911524
 31
0.0
  0
LINE
  5
1AB
330
16C
100
AcDbEntity
  8
$DDT_AUDIT_GENERATED_(1A9)
  6
Continuous
 62
     7
100
AcDbLine
 10
121.0610418783
 20
355.2990825218
 30
0.0
 11
126.8605412598
 21
337.4500587517
 31
0.0
  0
LINE
  5
1AD
330
16C
100
AcDbEntity
  8
$DDT_AUDIT_GENERATED_(1AC)
  6
Continuous
 62
     7
100
AcDbLine
 10
127.1940353024
 20
357.2918128821
 30
0.0
 11
118.2091934355
 21
354.372460792
 31
0.0
  0
ARC
  5
1AE
330
16C
100
AcDbEntity
  8
$DDT_AUDIT_GENERATED_(1AC)
  6
Continuous
 62
     7
100
AcDbCircle
 10
121.0020208999
 20
361.0629476767
 30
0.0
 40
7.250000000000002
100
AcDbArc
 50
328.657248638
 51
18.0
  0
ARC
  5
1AF
330
16C
100
AcDbEntity
  8
$DDT_AUDIT_GENERATED_(1AC)
  6
Continuous
 62
     7
100
AcDbCircle
 10
121.0020208999
 20
361.0629476767
 30
0.0
 40
7.249999999999999
100
AcDbArc
 50
18.0
 51
247.342751362
  0
LINE
  5
1B1
330
16C
100
AcDbEntity
  8
DV2_Default
  6
CENTER2
 62
     7
100
AcDbLine
 10
165.039246091
 20
306.5364770009
 30
0.0
 11
125.0392469851
 21
306.5364770009
 31
0.0
  0
LINE
  5
1B2
330
16C
100
AcDbEntity
  8
DV2_Default
  6
CENTER2
 62
     7
100
AcDbLine
 10
145.039246538
 20
326.5364765538
 30
0.0
 11
145.039246538
 21
286.5364774479
 31
0.0
  0
ENDBLK
  5
1B4
330
16C
100
AcDbEntity
  8
0
100
AcDbBlockEnd
  0
BLOCK
  5
1D8
330
1B5
100
AcDbEntity
  8
0
100
AcDbBlockBegin
  2
SE2
 70
     0
 10
0.0
 20
0.0
 30
0.0
  3
SE2
  1

  0
ARC
  5
1B7
330
1B5
100
AcDbEntity
  8
$DDT_AUDIT_GENERATED_(60)
  6
Continuous
 62
     7
100
AcDbCircle
 10
34.8126317062
 20
228.248608722
 30
0.0
 40
24.04028269668625
100
AcDbArc
 50
0.0
 51
72.7290260727
  0
ARC
  5
1B8
330
1B5
100
AcDbEntity
  8
$DDT_AUDIT_GENERATED_(60)
  6
Continuous
 62
     7
100
AcDbCircle
 10
34.8126317062
 20
228.248608722
 30
0.0
 40
24.04028269668625
100
AcDbArc
 50
107.3133242096
 51
185.3685864894
  0
ARC
  5
1B9
330
1B5
100
AcDbEntity
  8
$DDT_AUDIT_GENERATED_(60)
  6
Continuous
 62
     7
100
AcDbCircle
 10
34.8126317062
 20
228.248608722
 30
0.0
 40
24.04028269668625
100
AcDbArc
 50
354.631121408
 51
0.0
  0
ARC
  5
1BA
330
1B5
100
AcDbEntity
  8
$DDT_AUDIT_GENERATED_(60)
  6
Continuous
 62
     7
100
AcDbCircle
 10
-1944.8508727875
 20
70.3580795694
 30
0.0
 40
1962.607506313892
100
AcDbArc
 50
1.1968015531
 51
3.4279210902
  0
ARC
  5
1BB
330
1B5
100
AcDbEntity
  8
$DDT_AUDIT_GENERATED_(60)
  6
Continuous
 62
     7
100
AcDbCircle
 10
2081.5568284342
 20
67.4097031441
 30
0.0
 40
2029.735860596312
100
AcDbArc
 50
176.6350821835
 51
178.7595296118
  0
ELLIPSE
  5
1BC
330
1B5
100
AcDbEntity
  8
$DDT_AUDIT_GENERATED_(60)
  6
Continuous
 62
     7
100
AcDbEllipse
 10
18.5217022055
 20
111.4039371722
 30
0.0
 11
1.19288401074244
 21
0.1304903709668098
 31
0.0
210
0.0
220
0.0
230
1.0
 40
0.5513580944
 41
3.025820337397386
 42
3.14266901059816
  0
ARC
  5
1BD
330
1B5
100
AcDbEntity
  8
$DDT_AUDIT_GENERATED_(60)
  6
Continuous
 62
     7
100
AcDbCircle
 10
51.1034429382
 20
111.4042841096
 30
0.0
 40
1.199999999999997
100
AcDbArc
 50
296.7243565513
 51
353.8431061676
  0
ARC
  5
1BE
330
1B5
100
AcDbEntity
  8
$DDT_AUDIT_GENERATED_(60)
  6
Continuous
 62
     7
100
AcDbCircle
 10
34.8122266747
 20
143.9068253138
 30
0.0
 40
37.55682531375484
100
AcDbArc
 50
243.3763864755
 51
296.62468203
  0
ARC
  5
1BF
330
1B5
100
AcDbEntity
  8
$DDT_AUDIT_GENERATED_(60)
  6
Continuous
 62
     7
100
AcDbCircle
 10
52.7974083332
 20
115.3168400613
 30
0.0
 40
35.69316941940224
100
AcDbArc
 50
186.3827496447
 51
186.6051403257
  0
ARC
  5
1C0
330
1B5
100
AcDbEntity
  8
$DDT_AUDIT_GENERATED_(60)
  6
Continuous
 62
     7
100
AcDbCircle
 10
16.8141817887
 20
115.3265826445
 30
0.0
 40
35.70771605411151
100
AcDbArc
 50
353.3823974535
 51
353.60509426
  0
ARC
  5
1C1
330
1B5
100
AcDbEntity
  8
$DDT_AUDIT_GENERATED_(60)
  6
Continuous
 62
     7
100
AcDbCircle
 10
18.5217022055
 20
111.4039371722
 30
0.0
 40
1.200000000000001
100
AcDbArc
 50
186.2563352729
 51
243.4162057778
  0
LINE
  5
1C2
330
1B5
100
AcDbEntity
  8
$DDT_AUDIT_GENERATED_(60)
  6
Continuous
 62
     7
100
AcDbLine
 10
11.0456673623
 20
226.0148295548
 30
0.0
 11
12.2998002895
 21
212.7617672194
 31
0.0
  0
LINE
  5
1C3
330
1B5
100
AcDbEntity
  8
$DDT_AUDIT_GENERATED_(60)
  6
Continuous
 62
     7
100
AcDbLine
 10
57.3203844704
 20
212.709749353
 30
0.0
 11
58.5794395377
 21
226.0148264532
 31
0.0
  0
SPLINE
  5
1C4
330
1B5
100
AcDbEntity
  8
$DDT_AUDIT_GENERATED_(14C)
  6
Continuous
 62
     7
100
AcDbSpline
210
0.0
220
0.0
230
1.0
 70
    12
 71
     3
 72
     8
 73
     4
 74
     0
 42
0.0000000001157073
 43
0.0000000001
 40
0.0688231592461969
 40
0.0688231592461969
 40
0.0688231592461969
 40
0.0688231592461969
 40
0.0701480125336525
 40
0.0701480125336525
 40
0.0701480125336525
 40
0.0701480125336525
 10
56.82407684200857
 20
193.5090781037588
 30
0.0
 41
1.0
 10
56.8176189604937
 20
193.4714626525444
 30
0.0
 41
1.0
 10
56.81110144227878
 20
193.4338564914582
 30
0.0
 41
1.0
 10
56.80452463921602
 20
193.3962595232646
 30
0.0
 41
1.0
  0
SPLINE
  5
1C5
330
1B5
100
AcDbEntity
  8
$DDT_AUDIT_GENERATED_(14C)
  6
Continuous
 62
     7
100
AcDbSpline
210
0.0
220
0.0
230
1.0
 70
    12
 71
     3
 72
     9
 73
     5
 74
     0
 42
0.0000000001169093
 43
0.0000000001
 40
0.945158734225358
 40
0.945158734225358
 40
0.945158734225358
 40
0.945158734225358
 40
0.9453156855150736
 40
0.9456870302859214
 40
0.9456870302859214
 40
0.9456870302859214
 40
0.9456870302859214
 10
12.70228473802878
 20
194.7305370911298
 30
0.0
 41
1.0
 10
12.70157135189285
 20
194.734955012726
 30
0.0
 41
1.0
 10
12.69917273644755
 20
194.7498259699978
 30
0.0
 41
1.0
 10
12.69678299699491
 20
194.7646979025846
 30
0.0
 41
1.0
 10
12.69510762215623
 20
194.7751520225863
 30
0.0
 41
1.0
  0
ARC
  5
1C6
330
1B5
100
AcDbEntity
  8
$DDT_AUDIT_GENERATED_(14C)
  6
Continuous
 62
     7
100
AcDbCircle
 10
34.8063754033
 20
206.4145674667
 30
0.0
 40
23.64700037045851
100
AcDbArc
 50
181.5289963911
 51
190.3631190678
  0
ARC
  5
1C7
330
1B5
100
AcDbEntity
  8
$DDT_AUDIT_GENERATED_(14C)
  6
Continuous
 62
     7
100
AcDbCircle
 10
34.8063754033
 20
206.4145674667
 30
0.0
 40
23.64700037045851
100
AcDbArc
 50
348.2824238378
 51
359.5360710999
  0
ARC
  5
1C8
330
1B5
100
AcDbEntity
  8
$DDT_AUDIT_GENERATED_(14C)
  6
Continuous
 62
     7
100
AcDbCircle
 10
34.8178439711
 20
205.1806895773
 30
0.0
 40
23.65773310154447
100
AcDbArc
 50
2.5253869843
 51
178.5396805067
  0
ARC
  5
1C9
330
1B5
100
AcDbEntity
  8
$DDT_AUDIT_GENERATED_(14C)
  6
Continuous
 62
     7
100
AcDbCircle
 10
34.8115007594
 20
135.7307981717
 30
0.0
 40
27.61182791008218
100
AcDbArc
 50
243.7110628755
 51
296.2564799924
  0
ARC
  5
1CA
330
1B5
100
AcDbEntity
  8
$DDT_AUDIT_GENERATED_(14C)
  6
Continuous
 62
     7
100
AcDbCircle
 10
46.5536066837
 20
112.070690156
 30
0.0
 40
1.199999999999997
100
AcDbArc
 50
293.2185382517
 51
356.5902246049
  0
SPLINE
  5
1CB
330
1B5
100
AcDbEntity
  8
$DDT_AUDIT_GENERATED_(14C)
  6
Continuous
 62
     7
100
AcDbSpline
210
0.0
220
0.0
230
1.0
 70
     8
 71
     3
 72
    68
 73
    64
 74
     0
 42
0.0000000001216535
 43
0.0000000001
 40
0.0
 40
0.0
 40
0.0
 40
0.0
 40
0.0446158901138688
 40
0.0875389300136333
 40
0.1287898855598945
 40
0.1683824618297275
 40
0.2063259275597543
 40
0.2426170100219368
 40
0.2752842989905647
 40
0.3064524081230946
 40
0.3361329075221406
 40
0.3643381980907605
 40
0.3910818247028822
 40
0.4178439822204246
 40
0.4429648034120515
 40
0.4664701640456265
 40
0.4883495795689496
 40
0.5088112683701624
 40
0.5283798774137775
 40
0.5503188983128786
 40
0.5710356495153691
 40
0.5905153961791566
 40
0.6087755263831184
 40
0.6186503189032829
 40
0.6281415017823913
 40
0.6366720411166025
 40
0.6434146445285976
 40
0.648361341557017
 40
0.6508298841252229
 40
0.6546265122362972
 40
0.659847463985127
 40
0.6665000222203206
 40
0.674563075779023
 40
0.6830540151309513
 40
0.6914716122723173
 40
0.7257669912095276
 40
0.7592104987755074
 40
0.7934555903782475
 40
0.8018227005497118
 40
0.8102546438528921
 40
0.8180620722769917
 40
0.8244511975412099
 40
0.8294182776460175
 40
0.8323219904179572
 40
0.8343500696756952
 40
0.8364287370231385
 40
0.8392611599813014
 40
0.84284789360747
 40
0.8485116003103776
 40
0.8553862857969776
 40
0.8634715182920172
 40
0.8723009527800331
 40
0.8811776725992038
 40
0.8901073048812759
 40
0.89910134682253
 40
0.9150112464204676
 40
0.93114444809297
 40
0.9474876197029882
 40
0.9637806530042942
 40
0.9752245363156242
 40
0.9851884844716334
 40
0.9936534863540252
 40
1.0
 40
1.0
 40
1.0
 40
1.0
 10
47.75149145965139
 20
111.9994735283567
 30
0.0
 10
47.8245017208767
 20
113.3051333662794
 30
0.0
 10
47.94397973697872
 20
115.4634569858475
 30
0.0
 10
48.09061484847869
 20
118.9837199274092
 30
0.0
 10
48.2049309242569
 20
122.3018921706186
 30
0.0
 10
48.29915661795817
 20
125.5216866229025
 30
0.0
 10
48.38129767641126
 20
128.6141529699507
 30
0.0
 10
48.45728915374131
 20
131.5300367368333
 30
0.0
 10
48.53285015735984
 20
134.2690966867379
 30
0.0
 10
48.61166801695016
 20
136.8340375444162
 30
0.0
 10
48.69810015345031
 20
139.2820892482557
 30
0.0
 10
48.79366859925735
 20
141.6129910661599
 30
0.0
 10
48.90035897275263
 20
143.8671131502798
 30
0.0
 10
49.01739139808283
 20
146.0390611210279
 30
0.0
 10
49.14173032085517
 20
148.1238907366457
 30
0.0
 10
49.26539498176548
 20
150.0755612075328
 30
0.0
 10
49.38019014710004
 20
151.9000190060347
 30
0.0
 10
49.48913857968255
 20
153.616660735312
 30
0.0
 10
49.60283723073532
 20
155.3357890612326
 30
0.0
 10
49.72559193578914
 20
157.0624014776016
 30
0.0
 10
49.86209500185383
 20
158.786281115584
 30
0.0
 10
50.0074900653416
 20
160.4071182403092
 30
0.0
 10
50.14212391043598
 20
161.7259498509401
 30
0.0
 10
50.2593645724892
 20
162.7668922313453
 30
0.0
 10
50.35194859963008
 20
163.5379512742874
 30
0.0
 10
50.43878354289023
 20
164.2217880488514
 30
0.0
 10
50.51271504475854
 20
164.7796655988974
 30
0.0
 10
50.5659918220141
 20
165.1700318222898
 30
0.0
 10
50.60886954082721
 20
165.4790168057508
 30
0.0
 10
50.65336079671241
 20
165.7954422871849
 30
0.0
 10
50.71505958973655
 20
166.2269319318611
 30
0.0
 10
50.79492580383588
 20
166.7756013551216
 30
0.0
 10
50.88928294946686
 20
167.4139065822385
 30
0.0
 10
50.9911005039888
 20
168.1004831412744
 30
0.0
 10
51.20040800531429
 20
169.5077221594794
 30
0.0
 10
51.52689896410854
 20
171.5967324854978
 30
0.0
 10
52.05062146736363
 20
174.3726314597795
 30
0.0
 10
52.50091305529419
 20
176.4242860279606
 30
0.0
 10
52.81898952844556
 20
177.7940022685256
 30
0.0
 10
52.97499345925112
 20
178.4529849927084
 30
0.0
 10
53.12050376297557
 20
179.0578835733848
 30
0.0
 10
53.24507528863209
 20
179.5693908544967
 30
0.0
 10
53.33848333518178
 20
179.9495860137861
 30
0.0
 10
53.40364164591858
 20
180.2133110817174
 30
0.0
 10
53.44993915768948
 20
180.4000679741729
 30
0.0
 10
53.49586365173021
 20
180.5848225616251
 30
0.0
 10
53.55222754243702
 20
180.8108690827134
 30
0.0
 10
53.63261615081792
 20
181.1320098566238
 30
0.0
 10
53.74035321954661
 20
181.5601736869959
 30
0.0
 10
53.87953595272848
 20
182.1070643657709
 30
0.0
 10
54.04268269117838
 20
182.7366369152562
 30
0.0
 10
54.2233316558573
 20
183.4173210353756
 30
0.0
 10
54.41432510780968
 20
184.1183941768958
 30
0.0
 10
54.61076439886724
 20
184.8223341312741
 30
0.0
 10
54.86304879934909
 20
185.7097415449364
 30
0.0
 10
55.17289188413137
 20
186.7850561414725
 30
0.0
 10
55.53261734401541
 20
188.0518349330023
 30
0.0
 10
55.8804511219865
 20
189.3272383978634
 30
0.0
 10
56.17355545131886
 20
190.4806042812397
 30
0.0
 10
56.40684442667668
 20
191.4632733824386
 30
0.0
 10
56.57666511477705
 20
192.2296580940837
 30
0.0
 10
56.71024100053916
 20
192.8773313584368
 30
0.0
 10
56.77260388801499
 20
193.2217149534578
 30
0.0
 10
56.80399685775534
 20
193.3959502156836
 30
0.0
  0
SPLINE
  5
1CC
330
1B5
100
AcDbEntity
  8
$DDT_AUDIT_GENERATED_(14C)
  6
Continuous
 62
     7
100
AcDbSpline
210
0.0
220
0.0
230
1.0
 70
     8
 71
     3
 72
    72
 73
    68
 74
     0
 42
0.0000000001197109
 43
0.0000000001
 40
0.0
 40
0.0
 40
0.0
 40
0.0
 40
0.0022448776129217
 40
0.0055484426427109
 40
0.0116781549966428
 40
0.0197496733311931
 40
0.0297581992480491
 40
0.0416956477763572
 40
0.0552049517634698
 40
0.0685745649121823
 40
0.0815737128188631
 40
0.1044550706819464
 40
0.1261309149970038
 40
0.1466243104199709
 40
0.1583792306103164
 40
0.169362411010644
 40
0.178929553013816
 40
0.1870487296759934
 40
0.1937221173731193
 40
0.1980729766014451
 40
0.2031232359413035
 40
0.2093064155254657
 40
0.2166200947156039
 40
0.2247189604543828
 40
0.2431457206766308
 40
0.2628394283196403
 40
0.2836591051256275
 40
0.3046666653358192
 40
0.314112885831112
 40
0.3235739168981481
 40
0.3330550937571508
 40
0.342522393966845
 40
0.3511070758591584
 40
0.3578822023447902
 40
0.3628596543857308
 40
0.3660471545470222
 40
0.3689738943543085
 40
0.3730423968240596
 40
0.3782514551944415
 40
0.3846005487330836
 40
0.3920706783034189
 40
0.3999809694251308
 40
0.4222840139597661
 40
0.4454213514535872
 40
0.4713664524986612
 40
0.4982843654534951
 40
0.5252550517050474
 40
0.5516304109531367
 40
0.5773412146122066
 40
0.6024139842482603
 40
0.6405880384918586
 40
0.6778118170110727
 40
0.7144594536545784
 40
0.728056008076847
 40
0.7415624373714972
 40
0.7549749064387126
 40
0.768345975102685
 40
0.7829099529366363
 40
0.7991880030207013
 40
0.8171794104425639
 40
0.8368834875752008
 40
0.8593625606520555
 40
0.8837212636038494
 40
0.9099607172516165
 40
0.9380834294120284
 40
0.9680939639458497
 40
1.0
 40
1.0
 40
1.0
 40
1.0
 10
12.69946986885743
 20
194.7480280776061
 30
0.0
 10
12.70906764584596
 20
194.6897175136159
 30
0.0
 10
12.72927212733715
 20
194.567254312919
 30
0.0
 10
12.78328143044395
 20
194.2631144177305
 30
0.0
 10
12.86688596977632
 20
193.8135423765356
 30
0.0
 10
12.99282955395025
 20
193.1765585924596
 30
0.0
 10
13.16007843309402
 20
192.3845428013292
 30
0.0
 10
13.37265028112443
 20
191.4443971852697
 30
0.0
 10
13.62122839356281
 20
190.4126552115809
 30
0.0
 10
13.89111752595087
 20
189.353601878466
 30
0.0
 10
14.23673341753878
 20
188.0449599128919
 30
0.0
 10
14.65274321980455
 20
186.5129580980533
 30
0.0
 10
15.12239950427936
 20
184.7736088617604
 30
0.0
 10
15.50045603859035
 20
183.3234563430539
 30
0.0
 10
15.79369046233198
 20
182.1557653636245
 30
0.0
 10
16.00815780061521
 20
181.2809180621255
 30
0.0
 10
16.19650743115352
 20
180.5031726135755
 30
0.0
 10
16.35521342661556
 20
179.8411883414364
 30
0.0
 10
16.47884587504976
 20
179.320244562429
 30
0.0
 10
16.58191409766746
 20
178.8823412846859
 30
0.0
 10
16.68111555984152
 20
178.4576079848212
 30
0.0
 10
16.79807717389585
 20
177.9516863514305
 30
0.0
 10
16.93256983079867
 20
177.3619219422596
 30
0.0
 10
17.13989530100756
 20
176.4362892880287
 30
0.0
 10
17.41403438332834
 20
175.1678647341791
 30
0.0
 10
17.74162990370008
 20
173.5426290000827
 30
0.0
 10
18.05374625248134
 20
171.8375959403665
 30
0.0
 10
18.28745946457263
 20
170.4100191651925
 30
0.0
 10
18.45851502405101
 20
169.2961134964097
 30
0.0
 10
18.57692453044373
 20
168.5030095206546
 30
0.0
 10
18.69382195156717
 20
167.7087597292182
 30
0.0
 10
18.80724787794588
 20
166.9387103739363
 30
0.0
 10
18.90799293730003
 20
166.2438809184213
 30
0.0
 10
18.98866210136698
 20
165.6743128744465
 30
0.0
 10
19.04658988379546
 20
165.2556412990814
 30
0.0
 10
19.08882612870494
 20
164.9446732675368
 30
0.0
 10
19.12703947737623
 20
164.6590625811013
 30
0.0
 10
19.17203759291091
 20
164.3166093811146
 30
0.0
 10
19.22820768218953
 20
163.8778975924789
 30
0.0
 10
19.29434030337478
 20
163.3433572524162
 30
0.0
 10
19.36667647323435
 20
162.73250439589
 30
0.0
 10
19.48592409404793
 20
161.6723913446063
 30
0.0
 10
19.63780580079571
 20
160.1695641379251
 30
0.0
 10
19.81190483355985
 20
158.1563470176426
 30
0.0
 10
19.9722156656764
 20
156.0118070892718
 30
0.0
 10
20.12288448013944
 20
153.7593787364
 30
0.0
 10
20.26524727641719
 20
151.4961980760792
 30
0.0
 10
20.40603249059797
 20
149.2693401888287
 30
0.0
 10
20.54021202008887
 20
147.098358862748
 30
0.0
 10
20.68168802499549
 20
144.5981082579065
 30
0.0
 10
20.8195821741278
 20
141.7786976183721
 30
0.0
 10
20.94493261981614
 20
138.6416650970078
 30
0.0
 10
21.02568391649637
 20
136.1990633712633
 30
0.0
 10
21.07878505354045
 20
134.4224071070754
 30
0.0
 10
21.11092455291057
 20
133.2945579823937
 30
0.0
 10
21.14164672246097
 20
132.1742865816398
 30
0.0
 10
21.17225693999316
 20
131.0259974196263
 30
0.0
 10
21.20435683335271
 20
129.7996400795253
 30
0.0
 10
21.23952756830762
 20
128.4470361022509
 30
0.0
 10
21.27872544116626
 20
126.9544885413729
 30
0.0
 10
21.32368303509606
 20
125.2936183674773
 30
0.0
 10
21.37610724656473
 20
123.4608208747707
 30
0.0
 10
21.4384750485738
 20
121.4539859822234
 30
0.0
 10
21.51324802673345
 20
119.2949506006341
 30
0.0
 10
21.60384185488913
 20
117.0030894557237
 30
0.0
 10
21.71754936754414
 20
114.5069403265488
 30
0.0
 10
21.80430663164363
 20
112.9559343773167
 30
0.0
 10
21.85785218700412
 20
112.0068253389399
 30
0.0
  0
ARC
  5
1CD
330
1B5
100
AcDbEntity
  8
$DDT_AUDIT_GENERATED_(14C)
  6
Continuous
 62
     7
100
AcDbCircle
 10
23.0557725989
 20
112.0774406164
 30
0.0
 40
1.199999999999999
100
AcDbArc
 50
183.379633007
 51
246.7604934218
  0
ARC
  5
1CE
330
1B5
100
AcDbEntity
  8
$DDT_AUDIT_GENERATED_(14C)
  6
Continuous
 62
     7
100
AcDbCircle
 10
305.7183721549
 20
155.8427121405
 30
0.0
 40
251.7282970224898
100
AcDbArc
 50
169.534543705
 51
171.3946962477
  0
ARC
  5
1CF
330
1B5
100
AcDbEntity
  8
$DDT_AUDIT_GENERATED_(14C)
  6
Continuous
 62
     7
100
AcDbCircle
 10
-668.5893641171
 20
84.9602112206
 30
0.0
 40
690.078135983706
100
AcDbArc
 50
9.1565456707
 51
9.7771186241
  0
CIRCLE
  5
1D0
330
1B5
100
AcDbEntity
  8
$DDT_AUDIT_GENERATED_(1AC)
  6
Continuous
 62
     7
100
AcDbCircle
 10
34.8125535967
 20
252.2646287285
 30
0.0
 40
7.25
  0
LINE
  5
1D2
330
1B5
100
AcDbEntity
  8
DV3_Default
  6
CENTER2
 62
     7
100
AcDbLine
 10
54.8126312592
 20
228.248608722
 30
0.0
 11
14.8126321532
 21
228.248608722
 31
0.0
  0
LINE
  5
1D3
330
1B5
100
AcDbEntity
  8
DV3_Default
  6
CENTER2
 62
     7
100
AcDbLine
 10
34.8126317062
 20
248.248608275
 30
0.0
 11
34.8126317062
 21
208.2486091691
 31
0.0
  0
LINE
  5
1D4
330
1B5
100
AcDbEntity
  8
DV3_Default
  6
CENTER2
 62
     7
100
AcDbLine
 10
59.8126311474
 20
228.248608722
 30
0.0
 11
62.3529144029
 21
228.248608722
 31
0.0
  0
LINE
  5
1D5
330
1B5
100
AcDbEntity
  8
DV3_Default
  6
CENTER2
 62
     7
100
AcDbLine
 10
34.8126317062
 20
253.2486081633
 30
0.0
 11
34.8126317062
 21
255.7888914187
 31
0.0
  0
LINE
  5
1D6
330
1B5
100
AcDbEntity
  8
DV3_Default
  6
CENTER2
 62
     7
100
AcDbLine
 10
9.812632265
 20
228.248608722
 30
0.0
 11
7.2723490095
 21
228.248608722
 31
0.0
  0
LINE
  5
1D7
330
1B5
100
AcDbEntity
  8
DV3_Default
  6
CENTER2
 62
     7
100
AcDbLine
 10
34.8126317062
 20
203.2486092808
 30
0.0
 11
34.8126317062
 21
200.7083260254
 31
0.0
  0
ENDBLK
  5
1D9
330
1B5
100
AcDbEntity
  8
0
100
AcDbBlockEnd
  0
ENDSEC
  0
SECTION
  2
ENTITIES
  0
INSERT
  5
5F
330
1F
100
AcDbEntity
  8
Default
100
AcDbBlockReference
  2
SE
 10
0.0
 20
0.0
 30
0.0
  0
INSERT
  5
16D
330
1F
100
AcDbEntity
  8
Default
100
AcDbBlockReference
  2
SE1
 10
0.0
 20
0.0
 30
0.0
  0
INSERT
  5
1B6
330
1F
100
AcDbEntity
  8
Default
100
AcDbBlockReference
  2
SE2
 10
0.0
 20
0.0
 30
0.0
  0
TEXT
  5
1DB
330
1F
100
AcDbEntity
  8
Default
  6
Continuous
 62
     7
100
AcDbText
 10
5.9362635081
 20
53.4225120485
 30
0.0
 40
10.0
  1
Grohe AG^J
  7
SEACAD_seiso_ttf
 11
5.9362635081
 21
63.4225120485
 31
0.0
100
AcDbText
 73
     3
  0
TEXT
  5
1DC
330
1F
100
AcDbEntity
  8
Default
  6
Continuous
 62
     7
100
AcDbText
 10
5.9362635081
 20
37.0588756849
 30
0.0
 40
10.0
  1
 
  7
SEACAD_seiso_ttf
 11
5.9362635081
 21
47.0588756849
 31
0.0
100
AcDbText
 73
     3
  0
TEXT
  5
1DD
330
1F
100
AcDbEntity
  8
Default
  6
Continuous
 62
     7
100
AcDbText
 10
5.9362635081
 20
20.6952393213
 30
0.0
 40
10.0
  1
ecn:
  7
SEACAD_seiso_ttf
 11
5.9362635081
 21
30.6952393213
 31
0.0
100
AcDbText
 73
     3
  0
TEXT
  5
1DE
330
1F
100
AcDbEntity
  8
Default
  6
Continuous
 62
     7
100
AcDbText
 10
5.9362635081
 20
4.3316029576
 30
0.0
 40
10.0
  1
unit: mm
  7
SEACAD_seiso_ttf
 11
5.9362635081
 21
14.3316029576
 31
0.0
100
AcDbText
 73
     3
  0
LINE
  5
1DF
330
1F
100
AcDbEntity
  8
Default
  6
Continuous
 62
     7
100
AcDbLine
 10
0.0
 20
0.0
 30
0.0
 11
100.0
 21
0.0
 31
0.0
  0
LINE
  5
1E0
330
1F
100
AcDbEntity
  8
Default
  6
Continuous
 62
     7
100
AcDbLine
 10
0.0
 20
0.0
 30
0.0
 11
0.0
 21
100.0
 31
0.0
  0
TEXT
  5
1E1
330
1F
100
AcDbEntity
  8
Default
  6
Continuous
 62
     7
100
AcDbText
 10
24.3923665681
 20
-18.2375342018
 30
0.0
 40
10.0
  1
100 mm
  7
SEACAD_seiso_ttf
 11
24.3923665681
 21
-8.2375342018
 31
0.0
100
AcDbText
 73
     3
  0
TEXT
  5
1E2
330
1F
100
AcDbEntity
  8
Default
  6
Continuous
 62
     7
100
AcDbText
 10
-7.6150308803
 20
24.6231930421
 30
0.0
 40
10.0
  1
100 mm
 50
90.0
  7
SEACAD_seiso_ttf
 11
-17.6150308803
 21
24.6231930421
 31
0.0
100
AcDbText
 73
     3
  0
TEXT
  5
1E3
330
1F
100
AcDbEntity
  8
Default
  6
Continuous
 62
     7
100
AcDbText
 10
28.4878128572
 20
20.0907663715
 30
0.0
 40
10.0
  1
228515
  7
SEACAD_seiso_ttf
 11
28.4878128572
 21
30.0907663715
 31
0.0
100
AcDbText
 73
     3
  0
TEXT
  5
1E4
330
1F
100
AcDbEntity
  8
Default
  6
Continuous
 62
     7
100
AcDbText
 10
5.9012241913
 20
36.7242780188
 30
0.0
 40
10.0
  1
23322001
  7
SEACAD_seiso_ttf
 11
5.9012241913
 21
46.7242780188
 31
0.0
100
AcDbText
 73
     3
  0
ENDSEC
  0
SECTION
  2
OBJECTS
  0
DICTIONARY
  5
C
330
0
100
AcDbDictionary
281
     1
  3
ACAD_GROUP
350
D
  3
ACAD_LAYOUT
350
1A
  3
ACAD_MLEADERSTYLE
350
1E8
  3
ACAD_MLINESTYLE
350
17
  3
ACAD_PLOTSETTINGS
350
19
  3
ACAD_PLOTSTYLENAME
350
E
  3
ACAD_SCALELIST
350
3B
  3
ACAD_TABLESTYLE
350
1E7
  3
ACAD_VISUALSTYLE
350
2A
  3
AcDbVariableDictionary
350
1E5
  0
DICTIONARY
  5
D
102
{ACAD_REACTORS
330
C
102
}
330
C
100
AcDbDictionary
281
     1
  0
DICTIONARY
  5
1A
102
{ACAD_REACTORS
330
C
102
}
330
C
100
AcDbDictionary
281
     1
  3
Layout1
350
1E
  3
Model
350
22
  0
DICTIONARY
  5
1E8
102
{ACAD_REACTORS
330
C
102
}
330
C
100
AcDbDictionary
281
     1
  0
DICTIONARY
  5
17
102
{ACAD_REACTORS
330
C
102
}
330
C
100
AcDbDictionary
281
     1
  3
Standard
350
18
  0
DICTIONARY
  5
19
102
{ACAD_REACTORS
330
C
102
}
330
C
100
AcDbDictionary
281
     1
  0
ACDBDICTIONARYWDFLT
  5
E
102
{ACAD_REACTORS
330
C
102
}
330
C
100
AcDbDictionary
281
     1
  3
Normal
350
F
100
AcDbDictionaryWithDefault
340
F
  0
DICTIONARY
  5
3B
102
{ACAD_REACTORS
330
C
102
}
330
C
100
AcDbDictionary
281
     1
  3
A0
350
3C
  3
A1
350
3D
  3
A2
350
3E
  3
A3
350
3F
  3
A4
350
40
  3
A5
350
41
  3
A6
350
42
  3
A7
350
43
  3
A8
350
44
  3
A9
350
45
  3
B0
350
46
  3
B1
350
47
  3
B2
350
48
  3
B3
350
49
  3
B4
350
4A
  3
B5
350
4B
  3
B6
350
4C
  3
B7
350
4D
  3
B8
350
4E
  3
B9
350
4F
  3
C0
350
50
  3
C1
350
51
  3
C2
350
52
  3
C3
350
53
  3
C4
350
54
  3
C5
350
55
  3
C6
350
56
  3
C7
350
57
  3
C8
350
58
  3
C9
350
59
  3
D0
350
5A
  3
D1
350
5B
  3
D2
350
5C
  0
DICTIONARY
  5
1E7
102
{ACAD_REACTORS
330
C
102
}
330
C
100
AcDbDictionary
281
     1
  0
DICTIONARY
  5
2A
102
{ACAD_REACTORS
330
C
102
}
330
C
100
AcDbDictionary
281
     1
  3
2dWireframe
350
2F
  3
3D Hidden
350
31
  3
3dWireframe
350
30
  3
Basic
350
32
  3
Brighten
350
36
  3
ColorChange
350
3A
  3
Conceptual
350
34
  3
Dim
350
35
  3
Facepattern
350
39
  3
Flat
350
2B
  3
FlatWithEdges
350
2C
  3
Gouraud
350
2D
  3
GouraudWithEdges
350
2E
  3
Linepattern
350
38
  3
Realistic
350
33
  3
Thicken
350
37
  0
DICTIONARY
  5
1E5
102
{ACAD_REACTORS
330
C
102
}
330
C
100
AcDbDictionary
281
     1
  3
CANNOSCALE
350
1E6
  3
PSOLHEIGHT
350
1EA
  3
PSOLWIDTH
350
1E9
  0
LAYOUT
  5
1E
102
{ACAD_REACTORS
330
1A
102
}
330
1A
100
AcDbPlotSettings
  1

  2
none_device
  4

  6

 40
0.0
 41
0.0
 42
0.0
 43
0.0
 44
0.0
 45
0.0
 46
0.0
 47
0.0
 48
0.0
 49
0.0
140
0.0
141
0.0
142
1.0
143
1.0
 70
   688
 72
     0
 73
     0
 74
     5
  7

 75
    16
147
1.0
148
0.0
149
0.0
100
AcDbLayout
  1
Layout1
 70
     1
 71
     1
 10
0.0
 20
0.0
 11
3000.0
 21
4500.0
 12
0.0
 22
0.0
 32
0.0
 14
0.0
 24
0.0
 34
0.0
 15
3000.0
 25
4500.0
 35
0.0
146
0.0
 13
0.0
 23
0.0
 33
0.0
 16
1.0
 26
0.0
 36
0.0
 17
0.0
 27
1.0
 37
0.0
 76
     0
330
1B
  0
LAYOUT
  5
22
102
{ACAD_REACTORS
330
1A
102
}
330
1A
100
AcDbPlotSettings
  1

  2
none_device
  4

  6

 40
0.0
 41
0.0
 42
0.0
 43
0.0
 44
0.0
 45
0.0
 46
0.0
 47
0.0
 48
0.0
 49
0.0
140
0.0
141
0.0
142
1.0
143
1.0
 70
  1712
 72
     0
 73
     0
 74
     0
  7

 75
     0
147
1.0
148
0.0
149
0.0
100
AcDbLayout
  1
Model
 70
     1
 71
     0
 10
0.0
 20
0.0
 11
3000.0
 21
4500.0
 12
0.0
 22
0.0
 32
0.0
 14
0.0
 24
0.0
 34
0.0
 15
3000.0
 25
4500.0
 35
0.0
146
0.0
 13
0.0
 23
0.0
 33
0.0
 16
1.0
 26
0.0
 36
0.0
 17
0.0
 27
1.0
 37
0.0
 76
     0
330
1F
331
29
  0
MLINESTYLE
  5
18
102
{ACAD_REACTORS
330
17
102
}
330
17
100
AcDbMlineStyle
  2
Standard
 70
     0
  3

 62
   256
 51
90.0
 52
90.0
 71
     2
 49
0.5
 62
   256
  6
BYLAYER
 49
-0.5
 62
   256
  6
BYLAYER
  0
ACDBPLACEHOLDER
  5
F
102
{ACAD_REACTORS
330
E
102
}
330
E
  0
SCALE
  5
3C
102
{ACAD_REACTORS
330
3B
102
}
330
3B
100
AcDbScale
 70
     0
300
1:1
140
1.0
141
1.0
290
     1
  0
SCALE
  5
3D
102
{ACAD_REACTORS
330
3B
102
}
330
3B
100
AcDbScale
 70
     0
300
1:2
140
1.0
141
2.0
290
     0
  0
SCALE
  5
3E
102
{ACAD_REACTORS
330
3B
102
}
330
3B
100
AcDbScale
 70
     0
300
1:4
140
1.0
141
4.0
290
     0
  0
SCALE
  5
3F
102
{ACAD_REACTORS
330
3B
102
}
330
3B
100
AcDbScale
 70
     0
300
1:5
140
1.0
141
5.0
290
     0
  0
SCALE
  5
40
102
{ACAD_REACTORS
330
3B
102
}
330
3B
100
AcDbScale
 70
     0
300
1:8
140
1.0
141
8.0
290
     0
  0
SCALE
  5
41
102
{ACAD_REACTORS
330
3B
102
}
330
3B
100
AcDbScale
 70
     0
300
1:10
140
1.0
141
10.0
290
     0
  0
SCALE
  5
42
102
{ACAD_REACTORS
330
3B
102
}
330
3B
100
AcDbScale
 70
     0
300
1:16
140
1.0
141
16.0
290
     0
  0
SCALE
  5
43
102
{ACAD_REACTORS
330
3B
102
}
330
3B
100
AcDbScale
 70
     0
300
1:20
140
1.0
141
20.0
290
     0
  0
SCALE
  5
44
102
{ACAD_REACTORS
330
3B
102
}
330
3B
100
AcDbScale
 70
     0
300
1:30
140
1.0
141
30.0
290
     0
  0
SCALE
  5
45
102
{ACAD_REACTORS
330
3B
102
}
330
3B
100
AcDbScale
 70
     0
300
1:40
140
1.0
141
40.0
290
     0
  0
SCALE
  5
46
102
{ACAD_REACTORS
330
3B
102
}
330
3B
100
AcDbScale
 70
     0
300
1:50
140
1.0
141
50.0
290
     0
  0
SCALE
  5
47
102
{ACAD_REACTORS
330
3B
102
}
330
3B
100
AcDbScale
 70
     0
300
1:100
140
1.0
141
100.0
290
     0
  0
SCALE
  5
48
102
{ACAD_REACTORS
330
3B
102
}
330
3B
100
AcDbScale
 70
     0
300
2:1
140
2.0
141
1.0
290
     0
  0
SCALE
  5
49
102
{ACAD_REACTORS
330
3B
102
}
330
3B
100
AcDbScale
 70
     0
300
4:1
140
4.0
141
1.0
290
     0
  0
SCALE
  5
4A
102
{ACAD_REACTORS
330
3B
102
}
330
3B
100
AcDbScale
 70
     0
300
8:1
140
8.0
141
1.0
290
     0
  0
SCALE
  5
4B
102
{ACAD_REACTORS
330
3B
102
}
330
3B
100
AcDbScale
 70
     0
300
10:1
140
10.0
141
1.0
290
     0
  0
SCALE
  5
4C
102
{ACAD_REACTORS
330
3B
102
}
330
3B
100
AcDbScale
 70
     0
300
100:1
140
100.0
141
1.0
290
     0
  0
SCALE
  5
4D
102
{ACAD_REACTORS
330
3B
102
}
330
3B
100
AcDbScale
 70
     0
300
1/128" = 1'-0"
140
0.0078125
141
12.0
290
     0
  0
SCALE
  5
4E
102
{ACAD_REACTORS
330
3B
102
}
330
3B
100
AcDbScale
 70
     0
300
1/64" = 1'-0"
140
0.015625
141
12.0
290
     0
  0
SCALE
  5
4F
102
{ACAD_REACTORS
330
3B
102
}
330
3B
100
AcDbScale
 70
     0
300
1/32" = 1'-0"
140
0.03125
141
12.0
290
     0
  0
SCALE
  5
50
102
{ACAD_REACTORS
330
3B
102
}
330
3B
100
AcDbScale
 70
     0
300
1/16" = 1'-0"
140
0.0625
141
12.0
290
     0
  0
SCALE
  5
51
102
{ACAD_REACTORS
330
3B
102
}
330
3B
100
AcDbScale
 70
     0
300
3/32" = 1'-0"
140
0.09375
141
12.0
290
     0
  0
SCALE
  5
52
102
{ACAD_REACTORS
330
3B
102
}
330
3B
100
AcDbScale
 70
     0
300
1/8" = 1'-0"
140
0.125
141
12.0
290
     0
  0
SCALE
  5
53
102
{ACAD_REACTORS
330
3B
102
}
330
3B
100
AcDbScale
 70
     0
300
3/16" = 1'-0"
140
0.1875
141
12.0
290
     0
  0
SCALE
  5
54
102
{ACAD_REACTORS
330
3B
102
}
330
3B
100
AcDbScale
 70
     0
300
1/4" = 1'-0"
140
0.25
141
12.0
290
     0
  0
SCALE
  5
55
102
{ACAD_REACTORS
330
3B
102
}
330
3B
100
AcDbScale
 70
     0
300
3/8" = 1'-0"
140
0.375
141
12.0
290
     0
  0
SCALE
  5
56
102
{ACAD_REACTORS
330
3B
102
}
330
3B
100
AcDbScale
 70
     0
300
1/2" = 1'-0"
140
0.5
141
12.0
290
     0
  0
SCALE
  5
57
102
{ACAD_REACTORS
330
3B
102
}
330
3B
100
AcDbScale
 70
     0
300
3/4" = 1'-0"
140
0.75
141
12.0
290
     0
  0
SCALE
  5
58
102
{ACAD_REACTORS
330
3B
102
}
330
3B
100
AcDbScale
 70
     0
300
1" = 1'-0"
140
1.0
141
12.0
290
     0
  0
SCALE
  5
59
102
{ACAD_REACTORS
330
3B
102
}
330
3B
100
AcDbScale
 70
     0
300
1-1/2" = 1'-0"
140
1.5
141
12.0
290
     0
  0
SCALE
  5
5A
102
{ACAD_REACTORS
330
3B
102
}
330
3B
100
AcDbScale
 70
     0
300
3" = 1'-0"
140
3.0
141
12.0
290
     0
  0
SCALE
  5
5B
102
{ACAD_REACTORS
330
3B
102
}
330
3B
100
AcDbScale
 70
     0
300
6" = 1'-0"
140
6.0
141
12.0
290
     0
  0
SCALE
  5
5C
102
{ACAD_REACTORS
330
3B
102
}
330
3B
100
AcDbScale
 70
     0
300
1'-0" = 1'-0"
140
12.0
141
12.0
290
     0
  0
VISUALSTYLE
  5
2F
102
{ACAD_REACTORS
330
2A
102
}
330
2A
100
AcDbVisualStyle
  2
2dWireframe
 70
     4
 71
     0
 72
     2
 73
     0
 90
        0
 40
-0.6
 41
-30.0
 62
     5
 63
     7
 74
     1
 91
        4
 64
     7
 65
   257
 75
     1
175
     1
 42
1.0
 92
        0
 66
   257
 43
1.0
 76
     1
 77
     6
 78
     2
 67
     7
 79
     5
170
     0
171
     0
290
     0
174
     0
 93
        1
 44
0.0
173
     0
291
     0
 45
0.0
1001
ACAD
1000
AcDbSavedByObjectVersion
1070
     0
  0
VISUALSTYLE
  5
31
102
{ACAD_REACTORS
330
2A
102
}
330
2A
100
AcDbVisualStyle
  2
3D Hidden
 70
     6
 71
     1
 72
     2
 73
     2
 90
        0
 40
-0.6
 41
-30.0
 62
     5
 63
     7
 74
     2
 91
        2
 64
     7
 65
   257
 75
     2
175
     1
 42
40.0
 92
        0
 66
   257
 43
1.0
 76
     1
 77
     6
 78
     2
 67
     7
 79
     3
170
     0
171
     0
290
     0
174
     0
 93
        1
 44
0.0
173
     0
291
     0
 45
0.0
1001
ACAD
1000
AcDbSavedByObjectVersion
1070
     0
  0
VISUALSTYLE
  5
30
102
{ACAD_REACTORS
330
2A
102
}
330
2A
100
AcDbVisualStyle
  2
3dWireframe
 70
     5
 71
     0
 72
     2
 73
     0
 90
        0
 40
-0.6
 41
-30.0
 62
     5
 63
     7
 74
     1
 91
        4
 64
     7
 65
   257
 75
     1
175
     1
 42
1.0
 92
        0
 66
   257
 43
1.0
 76
     1
 77
     6
 78
     2
 67
     7
 79
     5
170
     0
171
     0
290
     0
174
     0
 93
        1
 44
0.0
173
     0
291
     0
 45
0.0
1001
ACAD
1000
AcDbSavedByObjectVersion
1070
     0
  0
VISUALSTYLE
  5
32
102
{ACAD_REACTORS
330
2A
102
}
330
2A
100
AcDbVisualStyle
  2
Basic
 70
     7
 71
     1
 72
     0
 73
     1
 90
        0
 40
-0.6
 41
-30.0
 62
     5
 63
     7
 74
     0
 91
        4
 64
     7
 65
   257
 75
     1
175
     1
 42
1.0
 92
        8
 66
     7
 43
1.0
 76
     1
 77
     6
 78
     2
 67
     7
 79
     5
170
     0
171
     0
290
     0
174
     0
 93
        1
 44
0.0
173
     0
291
     1
 45
0.0
1001
ACAD
1000
AcDbSavedByObjectVersion
1070
     0
  0
VISUALSTYLE
  5
36
102
{ACAD_REACTORS
330
2A
102
}
330
2A
100
AcDbVisualStyle
  2
Brighten
 70
    12
 71
     2
 72
     2
 73
     0
 90
        0
 40
-0.6
 41
-30.0
 62
     5
 63
     7
 74
     1
 91
        4
 64
     7
 65
   257
 75
     1
175
     1
 42
1.0
 92
        8
 66
     7
 43
1.0
 76
     1
 77
     6
 78
     2
 67
     7
 79
     5
170
     0
171
     0
290
     0
174
     0
 93
        1
 44
50.0
173
     0
291
     1
 45
0.0
1001
ACAD
1000
AcDbSavedByObjectVersion
1070
     0
  0
VISUALSTYLE
  5
3A
102
{ACAD_REACTORS
330
2A
102
}
330
2A
100
AcDbVisualStyle
  2
ColorChange
 70
    16
 71
     2
 72
     2
 73
     3
 90
        0
 40
-0.6
 41
-30.0
 62
     5
 63
     8
 74
     1
 91
        4
 64
     7
 65
   257
 75
     1
175
     1
 42
1.0
 92
        8
 66
     8
 43
1.0
 76
     1
 77
     6
 78
     2
 67
     7
 79
     5
170
     0
171
     0
290
     0
174
     0
 93
        1
 44
0.0
173
     0
291
     1
 45
0.0
1001
ACAD
1000
AcDbSavedByObjectVersion
1070
     0
  0
VISUALSTYLE
  5
34
102
{ACAD_REACTORS
330
2A
102
}
330
2A
100
AcDbVisualStyle
  2
Conceptual
 70
     9
 71
     3
 72
     2
 73
     0
 90
        0
 40
-0.6
 41
-30.0
 62
     5
 63
     7
 74
     2
 91
        2
 64
     7
 65
   257
 75
     1
175
     1
 42
40.0
 92
        8
 66
     7
 43
1.0
 76
     1
 77
     6
 78
     2
 67
     7
 79
     3
170
     0
171
     0
290
     0
174
     0
 93
        1
 44
0.0
173
     0
291
     0
 45
0.0
1001
ACAD
1000
AcDbSavedByObjectVersion
1070
     0
  0
VISUALSTYLE
  5
35
102
{ACAD_REACTORS
330
2A
102
}
330
2A
100
AcDbVisualStyle
  2
Dim
 70
    11
 71
     2
 72
     2
 73
     0
 90
        0
 40
-0.6
 41
-30.0
 62
     5
 63
     7
 74
     1
 91
        4
 64
     7
 65
   257
 75
     1
175
     1
 42
1.0
 92
        8
 66
     7
 43
1.0
 76
     1
 77
     6
 78
     2
 67
     7
 79
     5
170
     0
171
     0
290
     0
174
     0
 93
        1
 44
-50.0
173
     0
291
     1
 45
0.0
1001
ACAD
1000
AcDbSavedByObjectVersion
1070
     0
  0
VISUALSTYLE
  5
39
102
{ACAD_REACTORS
330
2A
102
}
330
2A
100
AcDbVisualStyle
  2
Facepattern
 70
    15
 71
     2
 72
     2
 73
     0
 90
        0
 40
-0.6
 41
-30.0
 62
     5
 63
     7
 74
     1
 91
        4
 64
     7
 65
   257
 75
     1
175
     1
 42
1.0
 92
        8
 66
     7
 43
1.0
 76
     1
 77
     6
 78
     2
 67
     7
 79
     5
170
     0
171
     0
290
     0
174
     0
 93
        1
 44
0.0
173
     0
291
     1
 45
0.0
1001
ACAD
1000
AcDbSavedByObjectVersion
1070
     0
  0
VISUALSTYLE
  5
2B
102
{ACAD_REACTORS
330
2A
102
}
330
2A
100
AcDbVisualStyle
  2
Flat
 70
     0
 71
     2
 72
     1
 73
     1
 90
        2
 40
-0.6
 41
30.0
 62
     5
 63
     7
 74
     0
 91
        4
 64
     7
 65
   257
 75
     1
175
     1
 42
1.0
 92
        8
 66
     7
 43
1.0
 76
     1
 77
     6
 78
     2
 67
     7
 79
     5
170
     0
171
     0
290
     0
174
     0
 93
       13
 44
0.0
173
     0
291
     1
 45
0.0
1001
ACAD
1000
AcDbSavedByObjectVersion
1070
     0
  0
VISUALSTYLE
  5
2C
102
{ACAD_REACTORS
330
2A
102
}
330
2A
100
AcDbVisualStyle
  2
FlatWithEdges
 70
     1
 71
     2
 72
     1
 73
     1
 90
        2
 40
-0.6
 41
30.0
 62
     5
 63
     7
 74
     1
 91
        4
 64
     7
 65
   257
 75
     1
175
     1
 42
1.0
 92
        0
 66
   257
 43
1.0
 76
     1
 77
     6
 78
     2
 67
     7
 79
     5
170
     0
171
     0
290
     0
174
     0
 93
       13
 44
0.0
173
     0
291
     1
 45
0.0
1001
ACAD
1000
AcDbSavedByObjectVersion
1070
     0
  0
VISUALSTYLE
  5
2D
102
{ACAD_REACTORS
330
2A
102
}
330
2A
100
AcDbVisualStyle
  2
Gouraud
 70
     2
 71
     2
 72
     2
 73
     1
 90
        2
 40
-0.6
 41
30.0
 62
     5
 63
     7
 74
     0
 91
        4
 64
     7
 65
   257
 75
     1
175
     1
 42
1.0
 92
        0
 66
     7
 43
1.0
 76
     1
 77
     6
 78
     2
 67
     7
 79
     5
170
     0
171
     0
290
     0
174
     0
 93
       13
 44
0.0
173
     0
291
     1
 45
0.0
1001
ACAD
1000
AcDbSavedByObjectVersion
1070
     0
  0
VISUALSTYLE
  5
2E
102
{ACAD_REACTORS
330
2A
102
}
330
2A
100
AcDbVisualStyle
  2
GouraudWithEdges
 70
     3
 71
     2
 72
     2
 73
     1
 90
        2
 40
-0.6
 41
30.0
 62
     5
 63
     7
 74
     1
 91
        4
 64
     7
 65
   257
 75
     1
175
     1
 42
1.0
 92
        0
 66
   257
 43
1.0
 76
     1
 77
     6
 78
     2
 67
     7
 79
     5
170
     0
171
     0
290
     0
174
     0
 93
       13
 44
0.0
173
     0
291
     1
 45
0.0
1001
ACAD
1000
AcDbSavedByObjectVersion
1070
     0
  0
VISUALSTYLE
  5
38
102
{ACAD_REACTORS
330
2A
102
}
330
2A
100
AcDbVisualStyle
  2
Linepattern
 70
    14
 71
     2
 72
     2
 73
     0
 90
        0
 40
-0.6
 41
-30.0
 62
     5
 63
     7
 74
     1
 91
        4
 64
     7
 65
   257
 75
     7
175
     7
 42
1.0
 92
        8
 66
     7
 43
1.0
 76
     1
 77
     6
 78
     2
 67
     7
 79
     5
170
     0
171
     0
290
     0
174
     0
 93
        1
 44
0.0
173
     0
291
     1
 45
0.0
1001
ACAD
1000
AcDbSavedByObjectVersion
1070
     0
  0
VISUALSTYLE
  5
33
102
{ACAD_REACTORS
330
2A
102
}
330
2A
100
AcDbVisualStyle
  2
Realistic
 70
     8
 71
     2
 72
     2
 73
     0
 90
        0
 40
-0.6
 41
-30.0
 62
     5
 63
     7
 74
     1
 91
        0
 64
     7
 65
   257
 75
     1
175
     1
 42
1.0
 92
        8
 66
     8
 43
1.0
 76
     1
 77
     6
 78
     2
 67
     7
 79
     5
170
     0
171
     0
290
     0
174
     0
 93
       13
 44
0.0
173
     0
291
     0
 45
0.0
1001
ACAD
1000
AcDbSavedByObjectVersion
1070
     0
  0
VISUALSTYLE
  5
37
102
{ACAD_REACTORS
330
2A
102
}
330
2A
100
AcDbVisualStyle
  2
Thicken
 70
    13
 71
     2
 72
     2
 73
     0
 90
        0
 40
-0.6
 41
-30.0
 62
     5
 63
     7
 74
     1
 91
        4
 64
     7
 65
   257
 75
     1
175
     1
 42
1.0
 92
       12
 66
     7
 43
1.0
 76
     1
 77
     6
 78
     2
 67
     7
 79
     5
170
     0
171
     0
290
     0
174
     0
 93
        1
 44
0.0
173
     0
291
     1
 45
0.0
1001
ACAD
1000
AcDbSavedByObjectVersion
1070
     0
  0
DICTIONARYVAR
  5
1E6
102
{ACAD_REACTORS
330
1E5
102
}
330
1E5
100
DictionaryVariables
280
     0
  1
1:1
  0
DICTIONARYVAR
  5
1EA
102
{ACAD_REACTORS
330
1E5
102
}
330
1E5
100
DictionaryVariables
280
     0
  1
80.000000
  0
DICTIONARYVAR
  5
1E9
102
{ACAD_REACTORS
330
1E5
102
}
330
1E5
100
DictionaryVariables
280
     0
  1
5.000000
  0
ENDSEC
  0
EOF
